tablaturas, partituras y acordes para guitarra
Busca por banda/artista:
 
y/o título de la canción:
A B C D E F G H I J K L M N O P Q R S T U V W X Y Z 0 1 2 3 4 5 6 7 8 9 / Top 100 tabs
Categorías
Usuarios
usuario:
Darse de alta
password:
Artistas más visitados
Publicidad
TOP acordes y tablaturas de Canciones De Rondalla


Aqui estoy
de Canciones De Rondalla
Puntúa este acorde/tab:      
(0.6/5)
Reportar este acorde/tab
  Añadir a tus favoritos
  Imprimir
E-------------------------3-----------
B--1-----0-----1----5-----3-----------
G-----0-----0-----2----4--4-----------
D----2-2---2-2---3-3--5-5-5-----------
A--3-----2-----3----3-----5-----------
E-------------------------3-----------

C                 Em
COMO EXPRESAR CON PALABRAS MUJER
F                    G
TODO ESTE MUNDO QUE DESATAS EN MI COMO EXPLICARTE

C              Em
COMO PODER AL POETA ROBAR
F                  G
ALGUNA FRASE PARA HABLARTE DE AMOR COMO DECIRTE

        G
E-------3---------
B-----3-3---------
G----4--4---------
D--5----5---------
A-------5---------
E-------3---------

C                          Em
QUE TE AMO COMO NUNCA IMAGINE
      F                             G
QUE TE QUIERO Y ESO ES TODO LO QUE SE
   C                            Em
SEPARARNOS POR TAN POCO FUE UN ERROR
     F                G          C Em F-G           C Em F-G
EL AMOR HOY ME DERROTA Y AQUI ESTO--O-OY  Y AQUI ESTO--O-OY 

E-------------------------3-----------
B--1-----0-----1----5-----3-----------
G-----0-----0-----2----4--4-----------
D----2-2---2-2---3-3--5-5-5-----------
A--3-----2-----3----3-----5-----------
E-------------------------3-----------

C                      Em
HOY QUISIERA VOLVER A TEMBLAR EN TU PIEL
F                          G
Y RECORRERLA HASTA ENLOQUECER
                    C
Y HACERTE MIA OTRA VEZ.

   C                          Em
PORQUE TE AMO COMO NUNCA IMAGINE
      F                             G
QUE TE QUIERO Y ESO ES TODO LO QUE SE
   C                            Em
SEPARARNOS POR TAN POCO FUE UN ERROR
     F                G          C Em F-G           C Em F-G
EL AMOR HOY ME DERROTA Y AQUI ESTO--O-OY  Y AQUI ESTO--O-OY
		   
AcordesyTabs.com © 2008 Acordes y Tablaturas para guitarra. Tabs and Chords for guitar. Aviso Legal - Contacto
El uso de este sitio está sujeto a la aceptación de los términos y condiciones (23 usuarios online)