tablaturas, partituras y acordes para guitarra
Busca por banda/artista:
 
y/o título de la canción:
A B C D E F G H I J K L M N O P Q R S T U V W X Y Z 0 1 2 3 4 5 6 7 8 9 / Top 100 tabs
Categorías
Usuarios
usuario:
Darse de alta
password:
Artistas más visitados
Publicidad
TOP acordes y tablaturas de Bon Jovi


Estás en: Inicio > Letra B > Acordes y tablaturas de Bon Jovi > Silent Night Solo
Silent Night Solo
de Bon Jovi
Puntúa este acorde/tab:      
(0.3/5)
Reportar este acorde/tab
  Añadir a tus favoritos
  Imprimir

#----------------------------------PLEASE NOTE---------------------------------#
#This file is the author's own work and represents their interpretation of the #
#song. You may only use this file for private study, scholarship, or research. #
#------------------------------------------------------------------------------#

                                SILENT NIGHT SOLO

Words and Music by: Jon Bon Jovi
Album: 7800° Fahrenheit (1985)
Transcribed by: Peter Pletz


                                     D/A
     W.B.  W.B.  W.B.  W.B.  W.B.                          
e :---------------------------------|---------------------------------|
B :---------------------------------|---------------------------------|
G :-9(6)96(4)64(2)42(0)2-/4(6)4--|---------------------------------|
D :---------------------------------|-4~~~----------------------------|
A :---------------------------------|---------------------------------|
E :---------------------------------|---------------------------------|



    A
      W.B.   W.B.    W.B.    W.B.      W.B.  W.B.     W.B.    W.B.
e :-12(9)12p9(7)9-------------------h12(9)12p9(7)9--------------------|
B :---------------h12(10)12p10(7)10----------------h12(10)12p10(7)10--|
G :-------------------------------------------------------------------|
D :-------------------------------------------------------------------|
A :-------------------------------------------------------------------|
E :-------------------------------------------------------------------|




    D/A                              
        |------n.h.------|
e :---------------------------------|
B :------------7-----7~~~-----------|
G :-11---7---7-------7~~~-----------|
D :--------7---------7~~~-----------|
A :---------------------------------|
E :---------------------------------|




    A

e :-17-14-------17-14----------14-17-14----------14-17-14-------17-14-------17-1
B :-------17-14-------17-14-17----------17-14-17----------17-14-------17-14-----
G :-----------------------------------------------------------------------------
D :-----------------------------------------------------------------------------
A :-----------------------------------------------------------------------------
E :-----------------------------------------------------------------------------




   D/A

e :-b(21)--19b(21)--17--------------|
B :--------------------19~~~--------|
G :---------------------------------|
D :---------------------------------|
A :---------------------------------|
E :---------------------------------|




    A
   |------------------------------echo effect-------------------------------|
e :-14----------------14-17-------------------------------14-17-------------|
B :-------14-17-------------14-17-------------------14-17-------14-17-------|
G :----16-------14-16-------------14-16-------14-16-------------------14-16-|
D :-------------------------------------14-16-------------------------------|
A :-------------------------------------------------------------------------|
E :-------------------------------------------------------------------------|




   D/A                                     A
      W.B.      W.B.     W.B.    W.B.
e :---------------------------------------|---------------------------------|
B :-14(12)14------------------------------|---------------------------------|
G :----------h16(14)1614(11)1411(9)117|6-------------------------------|
D :---------------------------------------|---------------------------------|
A :---------------------------------------|---------------------------------|
E :---------------------------------------|---------------------------------|
  :   W.B.      W.B.    W.B.    W.B.      |                                 |   
e :---------------------------------------|---------------------------------|
B :---------------------------------------|---------------------------------|
G :--9(6)9--------------------------------|---------------------------------|
D :----------h11(9)11--9(7)9--7(4)7--4|2-------------------------------|
A :---------------------------------------|---------------------------------|
E :---------------------------------------|---------------------------------|


Legend:

|-8/10-|  = slide up
|-108-|  = slide down
|--5h6--| = hammer on
|--6p5--| = pull off
|-5b(6)-| = bend string
   W.B.
|-9(7)9-| = bend down with whammy bar
   n.h.
|---5---| = natural harmonics
|-5~~~-|  = vibrato



















---TABS, LYRICS AND CHORDS Detail Data-----------------------------------
Automatically imported by TLC. Check out TLC at www.tabslyricschords.com!

---TLC DATA - Do Not Modify Between Lines--------------------------------
    Title: 
   Author: 
Copyright: 
    Album: 
 Category: 
    Tempo: 
   Tabber: 
      Key: 
     Memo: 
  LMargin: 3
  RMargin: 0
   Tuning: 
---TLC DATA - Do Not Modify Between Lines-------------------------------
		   
AcordesyTabs.com © 2008 Acordes y Tablaturas para guitarra. Tabs and Chords for guitar. Aviso Legal - Contacto
El uso de este sitio está sujeto a la aceptación de los términos y condiciones (36 usuarios online)