tablaturas, partituras y acordes para guitarra
Busca por banda/artista:
 
y/o título de la canción:
A B C D E F G H I J K L M N O P Q R S T U V W X Y Z 0 1 2 3 4 5 6 7 8 9 / Top 100 tabs
Categorías
Usuarios
usuario:
Darse de alta
password:
Artistas más visitados
Publicidad
TOP acordes y tablaturas de Pastilla


Estás en: Inicio > Letra P > Acordes y tablaturas de Pastilla > Aquí estoy
Aquí estoy
de Pastilla
Puntúa este acorde/tab:      
(0.7/5)
Reportar este acorde/tab
  Añadir a tus favoritos
  Imprimir
INTRO

                       repites lo mismo solo que
                       la ultima nota con distor 
1|----------------------|-----------------------------
2|----------------------|----------------------------
3|----------------------|--7---------------------------
4|---------------------7|--7---------------------------
5|--55555555-777777777-5|--5--------------------------
6|--33333333-555555555--|-----------------------------
                        De aqui en adelante lo repites
                         3 veces

VERSO
Guitarra 1 con distor 
                                                x3
1|-------------------------------------------------
2|-------------------------------------------------
3|-------------------------------------------------
4|-----------------------7777777777777777----------
5|--5555555555-777777777-5555555555555555----------
6|--3333333333-555555555---------------------------
  
y despues esto 

1|-------------------------------------------------
2|-------------------------------------------------
3|-----------------------7-------------------------
4|-----------------------7-------------------------
5|--5555555555-777777777-5-------------------------
6|--3333333333-555555555---------------------------
  
Guitarra 2 sin distor
                                                x3
1|-------------------------------------------------
2|-------------------------------------------------
3|-------------------------------------------------
4|-----------------------7777777777777777----------
5|--5555555555-777777777-5555555555555555----------
6|--3333333333-555555555---------------------------
    xxxxxxxxxx xxxxxxxxx xxxxxxxxxxxxxxxx 
  
y despues esto 

1|-------------------------------------------------
2|-------------------------------------------------
3|-----------------------7-------------------------
4|-----------------------7-------------------------
5|--5555555555-777777777-5-------------------------
6|--3333333333-555555555---------------------------
    xxxxxxxxxx xxxxxxxxx 
  
PUENTE
Las dos guitarras
                         x2 y despues
1|-------------------------|------------------------
2|-------------------------|------------------------
3|-7-7-7/9-9-9-9/7-7-7-7---|------------------------
4|-7-7-7/9-9-9-9/7-7-7-7-55|-22222222--55555555-----
5|-5-5-5/7-7-7-7/5-5-5-5-55|-22222222--55555555-----
6|-----------------------33|-00000000--33333333-----
   
                         X2 Y DESPUES
1|-------------------------|------------------------
2|-------------------------|------------------------
3|-7-7-7/9-9-9-9/7-7-7-7---|-----------55555555-7---
4|-7-7-7/9-9-9-9/7-7-7-7-55|-77777777--55555555-7---
5|-5-5-5/7-7-7-7/5-5-5-5-55|-77777777--33333333-5---
6|-----------------------33|-55555555---------------
   
VERSO 2
GUITARRA 1 (CON DISTOR)
                                                  x3
1|--------------------------------------------------
2|--------------------------------------------------
3|--------------------------------------------------
4|----------------------77777777777777--------------
5|--5555555555-77777777-55555555555555--------------
6|--3333333333-55555555-----------------------------

GUITARRA 2
despues de "y ahora quisiera estar" entra con esto
                                                  x3
1|--------------------------------------------------
2|--------------------------------------------------
3|-77-76-64-4-22---------4---------------7----------
4|-xxxxxxxxxxx22---------4---------------7----------
5|-55-54-42-2-00---------2---------------5----------
6|--------------------------------------------------

despues se unen las dos en el ultimo "y yo aqui estoy"
1|--------------------------------------------------
2|--------------------------------------------------
3|-------------------7------------------------------
4|-------------------7------------------------------
5|--5555555-77777777-5------------------------------
6|--3333333-55555555--------------------------------

CORO
                            X4 Y EN EL ULTIMO TOCAS ESTA NOTA
1|----------------------------|---------------------
2|----------------------------|---------------------
3|-7-7-7-7-7-7-7--------------|---------7-----------
4|-7-7-7-7-7-7-7--7-7--5-5-5-5|---------7-----------
5|-5-5-5-5-5-5-5--7-7--5-5-5-5|---------5-----------
6|----------------5-5--3-3-3-3|---------------------

VERSO 3
GUITARRA 2 (SOLAMENTE)                                             
1|--------------------------------------------------
2|--------------------------------------------------
3|--------------------------------------------------
4|--------------------------------------------------
5|--55555555555555-77777777777777-------------------
6|--33333333333333-55555555555555-------------------
AQUI SE LE UNE LA GUITARRA 1
1|--------------------------------------------------
2|--------------------------------------------------
3|--------------------------------------------------
4|-----------------77777777777777-------------------
5|--55555555555555-77777777777777-------------------
6|--33333333333333-55555555555555-------------------

CORO
PUENTE

FINAL
1|---
2|---
3|-7-
4|-7-
5|-5-
6|---

SIMBOLOGIA
X.-Palm muted
/.- Slide
		   
AcordesyTabs.com © 2008 Acordes y Tablaturas para guitarra. Tabs and Chords for guitar. Aviso Legal - Contacto
El uso de este sitio está sujeto a la aceptación de los términos y condiciones (95 usuarios online)