tablaturas, partituras y acordes para guitarra
Busca por banda/artista:
 
y/o título de la canción:
A B C D E F G H I J K L M N O P Q R S T U V W X Y Z 0 1 2 3 4 5 6 7 8 9 / Top 100 tabs
Categorías
Usuarios
usuario:
Darse de alta
password:
Artistas más visitados
Publicidad
TOP acordes y tablaturas de Resorte


Estás en: Inicio > Letra R > Acordes y tablaturas de Resorte > Aqui No Es Donde
Aqui No Es Donde
de Resorte
Puntúa este acorde/tab:      
(0.9/5)
Reportar este acorde/tab
  Añadir a tus favoritos
  Imprimir
Al parecer esta cxanción lleva un bajeo así:
espero que les guste:

RIFF 1 (se repite varias veces)
E|--------------------|-------------------------------|
B|--------------------|-------------------------------|
G|--------------------|-------------------------------|
D|-----------6---6----|-----------6---6-8-6---6-8-6---|
A|--5-8--5-8---8---5--|--5-8--5-8---8-------8------8--|
E1--------------------|-------------------------------|

Riff 2 (acaba con esto)
E|----------------------------|
B|----------------------------|
G|----------------------------|
D|-------6---6-8-6---6-8-6----|
A|--5-5----8-------8-------8--|
E|----------------------------|
		   
AcordesyTabs.com © 2008 Acordes y Tablaturas para guitarra. Tabs and Chords for guitar. Aviso Legal - Contacto
El uso de este sitio está sujeto a la aceptación de los términos y condiciones (27 usuarios online)