tablaturas, partituras y acordes para guitarra
Busca por banda/artista:
 
y/o título de la canción:
A B C D E F G H I J K L M N O P Q R S T U V W X Y Z 0 1 2 3 4 5 6 7 8 9 / Top 100 tabs
Categorías
Usuarios
usuario:
Darse de alta
password:
Artistas más visitados
Publicidad
TOP acordes y tablaturas de M-Clan


Estás en: Inicio > Letra M > Acordes y tablaturas de M-Clan > Aquí no pasa nada
Aquí no pasa nada
de M-Clan
Puntúa este acorde/tab:      
(1/5)
Reportar este acorde/tab
  Añadir a tus favoritos
  Imprimir
(Carlos Tarque/ Priscus/ M Clan)
E-----------------------------------------	=  *1
B--------------------------------3-------
G-------------------------5------3-------
D-5-8-7-------8-7-8-------------------					
A----------8-----------------------------
E-----------------------------------------

E----------------------------------------- =  *2
B------------------------------3-3-------
G-------------------------5----3-3-------
D-5-8-7-------8-7-8-------------------
A----------8-----------------------------
E-----------------------------------------

E-----------------------------------------  =  *3
B-------------------------------3-3-3---
G-------------------------5-----3-3-3---
D-5-8-7-------8-7-8-------------------
A----------8-----------------------------
E-----------------------------------------

*1, *3, *2



Tu pretendías ser la reina del rock,
E-----------------------------------------
B-----------------------3-3--------------
G------------------5----3-3--------------
D-5-8-----8-7-8------------------------
A-------8--------------------------------
E-----------------------------------------

yo el mas peligroso de los rockers,
E-----------------------------------------
B-----------------------3-3--------------
G------------------5----3-3--------------
D-5-8-----8-7-8------------------------
A-------8--------------------------------
E-----------------------------------------

me traicionaste con un dealer y yo 
E-----------------------------------------
B-----------------------3-3--------------
G------------------5----3-3--------------
D-5-8-----8-7-8------------------------
A-------8--------------------------------
E-----------------------------------------

de pronto me encontré barriendo un karaoke.
E------------------------------------------------------------
B------------------------------------------------------------
G---------------------------0--------------------------------
D-5-3-5-3(varias veces)---3--5-3-5-3(varias veces)--
A-------------------------------------------------------------
E--------------------------------------------------------------

                C G
Aquí no pasa nada, 
	C G
no pasa nada. 

G	C	              D
Insatisfecho como un Rolling Stone,
C			  D
con todo y un nada por delante,
C			D
me puse a escribir tu canción 
(silencio)
no encuentro quien la cante.
E-----------------------------------------	
B--------------------------------3-------
G-------------------------5------3-------
D-5-8-7-------8-7-8-------------------					
A----------8-----------------------------
E-----------------------------------------

E-----------------------------------------	
B--------------------------------3-------
G-------------------------5------3-------
D-5-8-7-------8-7-8-------------------					
A----------8-----------------------------
E-----------------------------------------

Viciosos los ojos que te ven corazón, 
E-----------------------------------------	
B--------------------------------3-------
G-------------------------5------3-------
D-5-8-7-------8-7-8-------------------					
A----------8-----------------------------
E-----------------------------------------
no estas criando malvas, eso ya es bastante,
E----------------------------------------	
B--------------------------------3-3----
G-------------------------5------3-3----
D-5-8-7-------8-7-8------------------					
A----------8----------------------------
E----------------------------------------
que tal te ha ido con tu carreron,
E-----------------------------------------	
B--------------------------------3-3-3--
G-------------------------5------3-3-3--
D-5-8-7-------8-7-8-------------------					
A----------8-----------------------------
E-----------------------------------------
siempre fuiste buena por detrás y por favor.
E------------------------------------------------------------
B------------------------------------------------------------
G---------------------------0--------------------------------
D-5-3-5-3(varias veces)---3--5-3-5-3(varias veces)--
A-------------------------------------------------------------
E--------------------------------------------------------------

	        C G
Aquí no pasa nada, 
	 C G
no pasa nada.
C		D
El cielo sigue azul
C		       D
los negros cantan blues,
C			D
me puse a escribir tu canción,
(silencio)
en donde estabas tu.

{G Bb C o se puede hacer el solo.}

D     C	           G
Se me durmió la razón,
G	C	     D      
se me fue la inspiración
D	Bb	      Am	
con el ultimo Long John
C			
por tu lado de colchón,

G C G C A G C o lo siguiente
E--------------------------------------------------------------15-------
B-----------------1-2-3 ~ ----10 ~ ~ -10-10-13-10-17-------17------17---
G-0-2-0-2-0-2-----------------------------------------------------------
D-----------------------------------------------------------------------
A-----------------------------------------------------------------------
E-----------------------------------------------------------------------




E------------------------------------20-20-20-17-17-15-12-10—15/12/10/8/5-----------
B------------------------------------------------------------------------------------------------
G-12-14-12-12-12-14--5-6-7----------------------------------------------------------------
D-------------------------------------------------------------------------------------------------
A-------------------------------------------------------------------------------------------------
E--------------------------------------------------------------------------------------------------

{G y cortar}					G Bb  C
Adiós cariño yo me tiro del tren
(Silencio)
!! Próxima parada: cardiaca!!.
E------------------------------------------------------------
B------------------------------------------------------------
G---------------------------0--------------------------------
D-5-3-5-3(varias veces)---3--5-3-5-3(varias veces)--
A-------------------------------------------------------------
E--------------------------------------------------------------
	            C G
Aquí no pasa nada,
		C G
No pasa nada

 G	C			D
Insatisfecho como un Rolling Stone,
C			   D
con todo y un nada por delante,
C			D
me puse a escribir tu canción 
(silencio)
no encuentro quien la cante.

 

Donde este el asterisco, se ha de tocar el solo especifico.
		   
AcordesyTabs.com © 2008 Acordes y Tablaturas para guitarra. Tabs and Chords for guitar. Aviso Legal - Contacto
El uso de este sitio está sujeto a la aceptación de los términos y condiciones (27 usuarios online)