tablaturas, partituras y acordes para guitarra
Busca por banda/artista:
 
y/o título de la canción:
A B C D E F G H I J K L M N O P Q R S T U V W X Y Z 0 1 2 3 4 5 6 7 8 9 / Top 100 tabs
Categorías
Usuarios
usuario:
Darse de alta
password:
Artistas más visitados
Publicidad
TOP acordes y tablaturas de Bon Jovi


Undivided
de Bon Jovi
Puntúa este acorde/tab:      
(0.6/5)
Reportar este acorde/tab
  Añadir a tus favoritos
  Imprimir
Intro:
-------------
( D - F ) 
Use Power Acordes 
-------------

D9


Verse:
( D9 )
That was my brother lost in the rubble 

That was my sister lost in the crush 

That was our mothers 

Those were our children 

That was our fathers 

That was each of us 

Bridge:
G 
A million prayers for the God above 
Bb
A million tears make an ocean of 

Chorus:
Dm       Bb
One for love 
F         C
One for truth 
Dm      Bb
One for me
    F        C 
And one for you 

Verse:
( D9 )
I´ve had spirit they couldn´t ruin it

I´ve had courage in the smoke and dust 

I´ve had faith in the songs of silenced    

Deep down it´s bringing down each of us 

Bridge:
G
Yeah, yeah yeah yeah yeah

Chorus:
Dm       Bb
One for love 
F         C
One for truth 
Dm      Bb
One for me
   F         C 
And one for you 
   Dm               Bb
Where we once were divided 
  F           C
Now we stand united 
  Dm        Bb   F    C
We stand as one 
    Dm
Undivided 

Guitar Solo I: 
Bb - F - C

Dm - Bb - F - C

Solo:
-----


e | --------------------------------------------------------- | 
B | ------------------6--8-8b11r8-p6------------------------- | 
G | --7-7-5-7-7-5-7~------------------7--5------------------- | 
D | -----------------------------------------5-5b7r5-----5~-- | 
A | ---------------------------------------------------8----- | 
E | --------------------------------------------------------- | 

e | --10--10--10--10--10-10-10-10-10--10--10--10--10-10-10-10-10--10-- | 
B | --13b-13b-13b-13b-13-13-13-13-13b-13b-13b-13b-13-13-13-13-13b-13b- | 
G | ------------------------------------------------------------------ | 
D | ------------------------------------------------------------------ | 
A | ------------------------------------------------------------------ | 
E | -/---------------------------------------------------------------- | 

e | -------13------------------------------------------------ | 
B | --------------------------------------------------------- | 
G | --12b------r12--10------10--12~---10h12p10-9------------- | 
D | --------------------12-----------------------12-10-12~--- | 
A | --------------------------------------------------------- | 
E | --------------------------------------------------------- | 



Bridge2:
( D9 )
How many hands 

How many hearts 

How many dreams 

Been torn apart 
G
Enough, Enough 
Bb
The time has come to rise back up 

Chorus:
Dm       Bb
One for love 
F         C
One for truth 
Dm      Bb
One for me
   F        C 
And one for you 
  Dm                 Bb
Where we once were divided 
  F           C
Now we stand united 
    Dm      Bb  F  C
We stand as one 
 Dm    Bb   F   C
Undivided 
 Dm    Bb    F   C
Undivided, 
 Dm    Bb    F   C
Undivided 


Dm Bb F C
 

Chorus:
Dm        Bb
One for love 
F          C
One for truth 
Dm      Bb
One for me
    F        C 
And one for you 
  Dm                Bb
Where we once were divided 
 f            C
Now we stand united 
   Dm        Bb    F   C
We stand as one 
Dm
Undivided 		   
AcordesyTabs.com © 2008 Acordes y Tablaturas para guitarra. Tabs and Chords for guitar. Aviso Legal - Contacto
El uso de este sitio está sujeto a la aceptación de los términos y condiciones (27 usuarios online)