tablaturas, partituras y acordes para guitarra
Busca por banda/artista:
 
y/o título de la canción:
A B C D E F G H I J K L M N O P Q R S T U V W X Y Z 0 1 2 3 4 5 6 7 8 9 / Top 100 tabs
Categorías
Usuarios
usuario:
Darse de alta
password:
Artistas más visitados
Publicidad
TOP acordes y tablaturas de Bon Jovi


Wanted
de Bon Jovi
Puntúa este acorde/tab:      
(0.2/5)
Reportar este acorde/tab
  Añadir a tus favoritos
  Imprimir
#----------------------------------PLEASE NOTE---------------------------------#
#This file is the author's own work and represents their interpretation of the #
#song. You may only use this file for private study, scholarship, or research. #
#------------------------------------------------------------------------------#

Wanted Dead or Alive

Bon Jovi

by Brian S.

/ Intro 6 string (Bon Jovi)
| e|:----13--------12---------10---------8---------5----5-3--|
| b|:---------------------------------------------------------|
| g|:-14---14---12----12---10----10---9----9----5----5--5-4--|
| d|:-0---------0----------0----------0---------0-------------|
| a|:---------------------------------------------------------|
| e|:---------------------------------------------------------|
|
|  12 string/and electric guitar (Sambora)
| e----------------------------------------------------------|
| b----------------------------------------------------------|
| g----------------------------------------------------------|
| d----------------------------------------------------------|
| a----------------------------------------------------------|
 e----------------------------------------------------------|
  
  guitar 1 :
/ e--3--:|-----------------------2------2h3--------------------|
| b-----:|-------------------------3--------3------------------|
| g--4--:|---------------------------2--------2----------------|
| d-----:|---------------------------0----------0--------------|
| a-----:|-----------------------------------------------------|
| e-----:|-----------------------------------------------------|
| guitar 2 :
| e----------------------------------------------------------|
| b----------------------------------------------------------|
| g----------------------------------------------------------|
| d-----------------------3-----------------------------3----|
| a--------0--0---3v--5------5--------------------3--5-----5-|
 e----------------------------------------------------------|
  
  guitar 1:
/ e----2---------3-------------------------------------------|
| b------3-----3---2-----------------------------------------|
| g---------2--------3---------------------------------------|
| d----------------------------------------------------------|
| a----------------------------------------------------------|
| e----------------------------------------------------------|
| guitar 2:
| e----------------------------------------------------------|
| b----------------------------------------------------------|
| g----------------------------------------------------------|
| d----------------------------------------------------------|
| a----------------------------------------------------------|
 e----------------------------------------------------------|

Verse :
  guitar 1:
/ e--2-2--3--2--0--2----------------------|
| b--3-3--3--3--3--3---3--3--x-x-3vvvvv---|
| g--2-2--2--2--2--2---0--0--x-x-0vvvvv---|
| d--0-0--0--0--0--0---0--0--x-x-0vvvvv---|
| a--------------------3--3--x-x-2vvvvv---|
| e------------------------------3vvvvv---|
| guitar 2:

 
Fill :
 e----------------------------------------------------------|
 b----------------------------------------------------------|
 g----------12bvvvvvvvvvvv-12b--r12--10---------------------|
 d---------------------------------------12--10------------|
 a----------------------------------------------------------|
 e----------------------------------------------------------|
  Im Wanted...

Guitar Solo :                  Pinch Harmonics-------|
 e-----------------------------------------------------------|
 b-----------------------------------------------------------|
 g-----------------------------12bvvvv--12bv--r12-10vv-10----|
 d--10--/12--12--10--/12--12---------------------------10h12-|
 a-----------------------------------------------------------|
 e--8---/10--10--8---/10--10---------------------------------|
     
                 PH--------------|                   PH---|
 e----------------------------------------------------------|
 b--------10h13--------------------------------------13bvv--|
 g--10h12--------12b--r12--12bvvvv--12p10-------------------|
 d-----------------------------------------12vvv------------|
 a----------------------------------------------------------|
 e----------------------------------------------------------|
       Go!!
   -------|
 e-------------------------------------------------13-----10-|
 b--r13vv--13p10-----------13b-13p10----------13bvvvvv13b----|
 g---------------12p10---------------12vvvvv-----------------|
 d---------------------12------------------------------------|
 a-----------------------------------------------------------|
 e-----------------------------------------------------------|
                          Palm Mute----------------|
 e-------13p10---------------------------------------|
 b--13bvvvvv---13vvvvvvv-----------------------------|
 g------------------------5--5--7--7--10--10--7vvvvv-|
 d------------------------5--5--7--7--10--10--7vvvvv-|
 a------------------------3--3--5--5--8---8---5vvvvv-|
 e---------------------------------------------------|

		   
AcordesyTabs.com © 2008 Acordes y Tablaturas para guitarra. Tabs and Chords for guitar. Aviso Legal - Contacto
El uso de este sitio está sujeto a la aceptación de los términos y condiciones (10 usuarios online)