tablaturas, partituras y acordes para guitarra
Busca por banda/artista:
 
y/o título de la canción:
A B C D E F G H I J K L M N O P Q R S T U V W X Y Z 0 1 2 3 4 5 6 7 8 9 / Top 100 tabs
Categorías
Usuarios
usuario:
Darse de alta
password:
Artistas más visitados
Publicidad
TOP acordes y tablaturas de Evolución


Así
de Evolución
Puntúa este acorde/tab:      
(0.3/5)
Reportar este acorde/tab
  Añadir a tus favoritos
  Imprimir


	* Afinar la guitarra medio tono abajo *




       (Am)	           (F)
	Es una guerra psicológica,
        (C)		      (E)
	yo contra mí junto a ella
	    (Am)               (F)
	con toda razón parece ilógico,
          (C)		       (E)
	pensar en ganar esta guerra.

        (Am)           (F)
	Por sentir su cuerpo caliente,
	(C)              (E)		(Am)
	por escuchar su respiración tan cerca
	(Dm)             (C)			
	saboreando su lengua y sus labios
	(E)		     (Am)
	penetrar sus ojos hambrientos.

       (E) (F)
	A - sí

	Am                          F
	Aquel fue un acto más que heroico,
		C		      E
	fui dictando mi propia sentencia
	Am			    F
	no es mi intención sonar romántico
	C			E
	sólo estoy siendo sincero
	Am	       F
	y yo sé que no todo es cierto 
	C	          E	    Am
	que el amor pasional no es eterno.
	Dm		  C                                
	Busco más que un roce entre cuerpos
	E			         Am
	hacer el bien, hacerle bien me encanta.

 	E   F
	A - sí

	Dm              C
	Quise sentir crecer su deseo, 
	Dm                    C
	hasta escuchar que gritara por dentro
	Dm             C
	utilizado el calor de los cuerpos
	E		          Am
	para volar tan lejos, más lejos

	E   F
	A - sí



	|------------------------(1)(1)-(1)(1)--(1)-----(1)----------------------|
	|------------------------(1)(1)-(1)(1)--(1)-----(1)----------------------|
	|--(5)(5)-----------------2--3---2--2----2-------2-----------------------|
	|--(7)(7)-----------------3--3---3--3----3-------3-----------------------|
	|--(7)(7)-----------------3--3---3--3----3-------3-----------------------|
	|---5--5--------7-7b------1--1---1--1----1-------1-----------------------|

									Se repite


	|--------------------------------|
	|--------------------------------|
	|--------------------------------|
	|---2----3----------2----3-------|
	|---2----3----------2----3-------|
	|--(0)--(1)--------(0)--(1)------|


	Am               F
	No me parece metafórico,
             C                  E
	me parece real y congruente.
	Am                 F
	Tampoco estoy exagerando, 
	       C                     E
	las palabras no llegan tan lejos
	Am                F
	lejos llega el lenguaje del alma
	C                  E	    Am
	al revelar lo que somos realmente,
	Dm                 C
	no tengo mas que decir al respecto,
	E				   Am
	a estas palabras se las llevará el viento.
 

	E   F
	A - sí



	|------------------------(1)------------------------|
	|------------------------(1)------------------------|
	|--(5)(5)-----------------2-------------------------|
	|--(7)(7)-----------------3-------------------------|
	|--(7)(7)-----------------3-------------------------|
	|---5--5--------7-7b------1-------------------------|
		   
AcordesyTabs.com © 2008 Acordes y Tablaturas para guitarra. Tabs and Chords for guitar. Aviso Legal - Contacto
El uso de este sitio está sujeto a la aceptación de los términos y condiciones (30 usuarios online)