tablaturas, partituras y acordes para guitarra
Busca por banda/artista:
 
y/o título de la canción:
A B C D E F G H I J K L M N O P Q R S T U V W X Y Z 0 1 2 3 4 5 6 7 8 9 / Top 100 tabs
Categorías
Usuarios
usuario:
Darse de alta
password:
Artistas más visitados
Publicidad
TOP acordes y tablaturas de Bon Jovi


Estás en: Inicio > Letra B > Acordes y tablaturas de Bon Jovi > You Give Love A Bad Name
You Give Love A Bad Name
de Bon Jovi
Puntúa este acorde/tab:      
(0.5/5)
Reportar este acorde/tab
  Añadir a tus favoritos
  Imprimir
--------------------------------------------------------------------------------
You Give Love a Bad Name by Bon Jovi

Tabbed by Imran Sajjad and Mark Balfour

Note: This a great song by bon jovi and took me a long time to figure out. This 
no mistake by me (it has correct pitch and notes) but if you find any mail me at
dal_roti13@hotmail.com . Its taken out by ear and was done on an accoustic so i 
its best instruments or its amp settings. If anyone has an electric out there pl
to repost this and provide them or mail me and i will. Thank you bon jovi for su
and have fun playing it:

Tuning:
Guitar: standard (EADGBe) for all chords and six string tab
Bass  : standard (EADG)   for all bass progs and fills

Chords used:
*   EADGBe
Cm  x35543
G#  466544
Bb  x13331

Articulation:

Hammer-on:  h
Pull off :  p
Slide    :  s
Vibrato  :  v
Hold note:  ~
repeat   :  /
chord

Prog A:
e-|-------------------|-------------------|
B-|-------------------|-------------------|
G-|-------------------|-------------------|
D-|-------------------|----------1-1------|
A-|-------------------|--------------3~---|
E-|-------------------|-------------------|
  |                   |                   |
G-|-------------------|-------------------|
D-|----------1-1------|----------1-1------|
A-|--3-3---1-----3-1--|--3-3---1-----3-1--|
E-|------3------------|------3------------|

Prog B:
e-|--11-13--|
B-|---------|
G-|---------|
D-|---------|
A-|---------|
E-|---------|

Intro:
This is after the 'shot through the heart' part. These all have a rest between t
to the song for the length of the rests.
e-|--1s3~p1---3p1-----------|--1s3~p1---3p1-------|--1s3~p1---3p1-----------|--1
B-|---------4-----4-1~p0h1--|---------4-----4p1~--|---------4-----4-1~p0h1--|---
G-|-------------------------|---------------------|-------------------------|---
D-|-------------------------|---------------------|-------------------------|---
A-|-------------------------|---------------------|-------------------------|---
E-|-------------------------|---------------------|-------------------------|---

e-|--19s~~~~~~~~~~~~~~|~~~~~~s0-----------|--19s~~~~~~~~~~~0--|-----------------
B-|-------------------|-------------------|-------------------|-----------------
G-|-------------------|-------------------|-------------------|-----------------
D-|-------------------|----------1-1------|-------------------|-----------------
A-|-------------------|--------------3~---|-------------------|--6-3s6-3s6-3s6--
E-|-------------------|-------------------|-------------------|----------------6
  |                   |                   |                   |
G-|-------------------|-------------------|-------------------|
D-|----------1-1------|----------1-1------|----------1-1------|
A-|--3-3---1-----3-1--|--3-3---1-----3-1--|--3-3---1-----3-1--|
E-|------3------------|------3------------|------3------------|

Verse 1:
Repeat Prog A for verse 

Pre Chorus:
Play Bb chord for the first line
then this in the break:
e-|-------------------------------|
B-|-------------------------------|
G-|-------------------------------|
D-|------1~----1~---------1-1-----|
A-|--3-3----3v----1-1-1-3-----3~--|
E-|-------------------------------|
Bb        Prog B
whoa...
G#                     Cm
No one can save me the damage is done

Chorus:
Cm / / G#  // 'and' Bb / Cm

G# / Bb 'a bad' Cm
 
'yeah' Cm // G#    Bb 'name'

If this site would let me give the lyrics id be much more clearer. This is half 
Chorus and its in 2 lines. The words in the inv. commas are the lyrics in the br

Chorus Outro/ Verse 2 Intro:
e-|-------------------|-------------------|-------------------|--------------|
B-|--4~---------------|--3~---------------|--4~---------------|--------------|
G-|-------------------|-------------------|-------------------|-----------8--|
D-|-------------------|----------1-1------|-------------------|--------------|
A-|-------------------|--------------3~---|-------------------|--3s6v-----6--|
E-|-------------------|-------------------|-------------------|-------8-6----|
  |                   |                   |                   |
G-|-------------------|-------------------|-------------------|
D-|----------1-1------|----------1-1------|----------1-1------|
A-|--3-3---1-----3-1--|--3-3---1-----3-1--|--3-3---1-----3-1--|
E-|------3------------|------3------------|------3------------|

Verse 2:
Play like Verse 1.

[Pre-Chorus]
[Chorus]

Solo:
e-|--3~-3s1---------|------------1-3-6v-6h8-6h8--|-----6------6------6------6---
B-|---------4v-3-4--|--3-1-1h3-4-----------------|-------8------8------8------8-
G-|-----------------|----------------------------|--10-----10-----10-----10-----
D-|-----------------|----------------------------|------------------------------
A-|-----------------|----------------------------|------------------------------
E-|-----------------|----------------------------|------------------------------

e-|--8----8-8s6-10--|----------|Slide this note
B-|----11-----------|----------|while playing a
G-|-----------------|----------|vibrato. This may
D-|-----------------|----------|be a little hard 
A-|-----------------|--3v~10v--|at first but youll
E-|-----------------|----------|get the hang of it.

[Chorus (vocal only)]
[Chorus]

Outro: (this is the ohhhhhhh part)

Cm~ Bb / / / Cm 'bad name'

Repeat the above as many times necessary and fade out to end it all.
--------------------------------------------------------------------------------
		   
AcordesyTabs.com © 2008 Acordes y Tablaturas para guitarra. Tabs and Chords for guitar. Aviso Legal - Contacto
El uso de este sitio está sujeto a la aceptación de los términos y condiciones (26 usuarios online)