tablaturas, partituras y acordes para guitarra
Busca por banda/artista:
 
y/o título de la canción:
A B C D E F G H I J K L M N O P Q R S T U V W X Y Z 0 1 2 3 4 5 6 7 8 9 / Top 100 tabs
Categorías
Usuarios
usuario:
Darse de alta
password:
Artistas más visitados
Publicidad
TOP acordes y tablaturas de Pastilla


Ataud
de Pastilla
Puntúa este acorde/tab:      
(0.4/5)
Reportar este acorde/tab
  Añadir a tus favoritos
  Imprimir
Transcribed by: Rodolfo Vergara Hernandez
Email: arc_arsenault@msn.com

sol        355xxx
la         577xxx
re         x577xx
do         x355xx

Riff 1

1a-----------------------------------------------------------------------------------------|
2a------3----------------------3---------------3-----5--------------------5---------------7|
3a------------------4---------------------4---------------------4--------------------4-----|
4a------------5----------5----------5---------------------5---------5---------5------------|
5a-----------------------------------------------------------------------------------------|
6a-----------------------------------------------------------------------------------------|


1a-----------------------------------------------------------------------------------------|
2a------3----------------------3---------------3-----5--------------------5---------------7|
3a------------------4---------------------4---------------------4--------------------4-----|
4a------------5----------5----------5---------------------5---------5---------5------------|
5a-----------------------------------------------------------------------------------------|
6a-----------------------------------------------------------------------------------------|

sol       la

sol       la 

sol         la
Miro las estrellas
sol             la
me quieren dibujar
sol               la
no dejes que se metan
sol                la
conviertete en esfera
sol             la
resignate a la invasion
sol                  la
no hay nada que hacer
sol               la
hoy no quiero oir tu voz
sol                la
se empieza a deshacer

CORO:
re      do           sol
Ayudame a no pensar
re         do           sol
en cosas que pueden hacerme mal
re       do         sol
enseñame a disfrutar
re          do           sol
las cosas que solo tu me puedes dar

re   do         sol
Enseñame mi ataud
re  do         sol
para poder viajar
re     do          sol
hoy no somos carnal
re   do         sol
somos espiritual

Riff 2
1a-----------------------------------------------------------------------------------------|
2a--------3----------------------3-------------------------------3--------------------3----|
3a--------------------4--------------------4----------5--------------------5---------------|
4a--------------5----------5----------5---------5----------5---------5----------5---------5|
5a-----------------------------------------------------------------------------------------|
6a-----------------------------------------------------------------------------------------|

otra vez riff 1


Mira las estrellas, 
no me quieren hablar
no dejes que me duerma, 
convierteme en esfera

CORO:
Ayudame a no pensar, 
en cosas que pueden hacerte mal
enseñame a disfrutar, las 
cosas que solo tu me puedes dar
Enseñsmr mi ataud, para poder 
viajar hoy no somos carnal, 
somos espiritual
somos espiritual, 
somos espiritual

dudas o comentarios son bien recibidos.
		   
AcordesyTabs.com © 2008 Acordes y Tablaturas para guitarra. Tabs and Chords for guitar. Aviso Legal - Contacto
El uso de este sitio está sujeto a la aceptación de los términos y condiciones (32 usuarios online)