tablaturas, partituras y acordes para guitarra
Busca por banda/artista:
 
y/o título de la canción:
A B C D E F G H I J K L M N O P Q R S T U V W X Y Z 0 1 2 3 4 5 6 7 8 9 / Top 100 tabs
Categorías
Usuarios
usuario:
Darse de alta
password:
Artistas más visitados
Publicidad
TOP acordes y tablaturas de Bread


If 2
de Bread
Puntúa este acorde/tab:      
(0.4/5)
Reportar este acorde/tab
  Añadir a tus favoritos
  Imprimir
IF
Bread

johnsantos_17@yahoo.com

Standard Tuning:(EADGBE)

Intro:RIFF 1

|------0-----0-----|------0-----0-----|------0------0----|------0-----0-----|
|--0-----0-----0---|--0-----0-----0---|--0-----0------0--|--0-----0-----0---|
|----6-----6-------|----4-----4-------|----4-----4-------|----2-----2-------|
|7-----------------|6-----------------|5-----------------|4-----------------|
|------------------|------------------|------------------|------------------|
|------------------|------------------|------------------|------------------|

|------0-----0----|------0-----0-----|------1-----1-----|
|--3-----3-----3--|--2-----2-----2---|--0-----0-----0---|
|----2-----2------|----2-----2-------|----2-----2-------|
|3----------------|2-----------------|0-----------------|
|-----------------|------------------|------------------|                
|-----------------|------------------|------------------|

Lead-in I:Lead-in II:
|--------0-(hold)|                |--------0-------|
|------3---------|                |------3---3-----|
|----1-----------|                |----1-------1---|
|--2-------------|                |--2------------2|
|----------------|                |----------------|
|0---------------|                |0---------------|

VERSE:RIFF 1
If a picture paints a thousand words,
Then why can't I paint you?
The words will never show
The you I've come to know. (Lead-in I)

RIFF 1
If a face could launch a thousand ships,
Then where am I to go?
There's no one home but you,
You're all that’s left me to. (Lead-in II)
 

Chorus: RIFF 2
|------2-----2----|------2-----2-----|------2-----2----|------2-----2-----|
|--2-----2-----2--|--2-----2-----2---|--2-----2-----2--|--0-----0-----0---|
|----2-----2------|----2-----2-------|----2-----2------|----2-----2-------|
|-----------------|------------------|-----------------|0-----------------|
|-----------------|------------------|-----------------|------------------|
|2----------------|1-----------------|0----------------|------------------|


|------0-----0----|------2-----2----|------2-----2-----|
|--0-----0-----0--|--------2-----2--|--0-----0-----0---|
|----0-----0------|----3-----3------|----2-----2-------|  ...Lead-in I
|-----------------|--2--------------|------------------|   
|4----------------|-----------------|2-----------------|
|-----------------|2----------------|------------------|
                 

CHORUS:RIFF 2
And when my love for life is running dry,
You'll come and pour yourself on me.  (Lead-in I)

VERSERIFF 1
If a man could be two places at one time
I'd be with you,
Tomorrow and today,
Beside you all the way. (Lead-in I)

If the world should stop revolving
Spinning slowly down to die,
I'd spend the end with you,
And when the world was through, (Lead-in II)

CHORUS:RIFF 2
Then one by one,
The stars would all go out,
Then you and I,
Would simply 
 

                                          
Ending:                                
|-----------------|------0-----0-----|--------0---------|--------0----------|
|--------3--------|--0-----0-----0---|------------0-----|------------0------|
|------2----------|----6-----6-------|--7---------------|--7----------------|
|----2------------|7-----------------|----7-----7---7---|----7-----7---7----|
|--2--------------|------------------|9-----9-----------|8-----8------------|
|0----------------|------------------|------------------|-------------------|
"fly...........a--way.............................................."

|-0-------|
|-2-------|
|-2-------|
|-2-------|
|-0-------|
|-0-------|

=====¤w&_17=====
		   
AcordesyTabs.com © 2008 Acordes y Tablaturas para guitarra. Tabs and Chords for guitar. Aviso Legal - Contacto
El uso de este sitio está sujeto a la aceptación de los términos y condiciones (15 usuarios online)