tablaturas, partituras y acordes para guitarra
Busca por banda/artista:
 
y/o título de la canción:
A B C D E F G H I J K L M N O P Q R S T U V W X Y Z 0 1 2 3 4 5 6 7 8 9 / Top 100 tabs
Categorías
Usuarios
usuario:
Darse de alta
password:
Artistas más visitados
Publicidad
TOP acordes y tablaturas de Metallica


Estás en: Inicio > Letra M > Acordes y tablaturas de Metallica > Unforgiven solo
Unforgiven solo
de Metallica
Puntúa este acorde/tab:      
(0.3/5)
Reportar este acorde/tab
  Añadir a tus favoritos
  Imprimir


Author/Artist: Metallica
Title: The Unforgiven solo
Album: Black Album
Transcribed by: Jason
Email: fishbok@aol.com

This solo has very cool bending work.  Notice the 
double stop bends in the first bar, a gradual bend
on the 5th string in bar 2, and a crazed 1 3/4-step 
in bar 5. This solo is correct because I have The Art
of Hammett book, it's a great book you should get
it.In bar 4 its supposed to be stike once bend 4
times but its easier to strike each time you bend. 
***NOTE: all bends are full step unless otherwise stated.***
There are no effects pedals used.
E-mail me for questions or for another 
solo I dont have all of them but if I have the one you 
want I'll submit it within a couple of days. It takes 
weeks sometimes for things to get in the directory,
 so you might want to just buy the book. Also check
out the Jimi Hendrix Foxey Ladey file i tabbed it might
not be in the directory yet.Enjoy!!!!


--------------------|----------------------------|----------------------------
-7b--7b-------------|----------------------------|---------------7---7-8------
-7b--7b--5----------|---------------------------5|7v-5-7-7/9-7-9---9----------
-----------7vvv--7br|5-----------------------/7--|----------------------------
--------------------|--7-53-5-3-------3br-------|----------------------------
--------------------|------------5-3-5-----------|----------------------------
                  br=bend and release                                         

---------10--------8----|---10-------------------------|----------------------
-7h8-10v----10v-10---10v|10----10v-20br-20br-20br-20bvv|20br-17---------------
------------------------|------------------------------|----------------------
------------------------|------------------------------|----------------------
------------------------|------------------------------|----------------------
------------------------|------------------------------|----------------------
                            bv=bend and vibrato                               

-20b---20br---20br--17-17-20p17----17------------|10p9-7-9----9---------------
--------------------------------20----20bv-------|---------10---8-7---7-------
-----------------------------------------------/9|------------------9---9-----
-------------------------------------------17---|----------------------------
-------------------------------------------------|----------------------------
-1-3/4-1-1/2--1-1/2------------------------------|----------------------------
 step  step    step                                                           

----------------------|---12-------12-------12-------12-------12--------------
----------------------|13----13-------13-------13-------13-------13-----------
-75-7-54-5-4-2v--/14|---------14-------14-------14-------14-------14--------
----------------------|-------------------------------------------------------
----------------------|-------------------------------------------------------
----------------------|-------------------------------------------------------
                        3-note A minor apreggio                               

-12-------12--------|------------------------17-19-20-19-17-19-17h19p17-------
----13-------13-----|------------20b-20bvvv-----------------------------------
-------14-------14vv|19b-19br-17----------------------------------------------
--------------------|---------------------------------------------------------
--------------------|---------------------------------------------------------
--------------------|---------------------------------------------------------
                                    the more v's the more vibrato             

-----17-----------------------------------|-------------------------|-----|---
-20b----20-17-----20-17-------------------|------------20vv-18h20p18|17vvv|---
--------------19b-------19-19brp17-19brp17|19b-19br-17--------------|-----|---
------------------------------------------|-------------------------|-----|---
------------------------------------------|-------------------------|-----|---
------------------------------------------|-------------------------|-----|---
     *fast fom 17 to bar*  brp=bend and release then pull off to 17           

------------|-----------------------------------------------------------------
-18p17vvvvvv|-----------------------------------------------------------------
------------|-----------------------------------------------------------------
------------|-----------------------------------------------------------------
------------|-----------------------------------------------------------------
------------|-----------------------------------------------------------------
            Enjoy this solo its pretty straight forward nothing too hard      



		   
AcordesyTabs.com © 2008 Acordes y Tablaturas para guitarra. Tabs and Chords for guitar. Aviso Legal - Contacto
El uso de este sitio está sujeto a la aceptación de los términos y condiciones (67 usuarios online)