tablaturas, partituras y acordes para guitarra
Busca por banda/artista:
 
y/o título de la canción:
A B C D E F G H I J K L M N O P Q R S T U V W X Y Z 0 1 2 3 4 5 6 7 8 9 / Top 100 tabs
Categorías
Usuarios
usuario:
Darse de alta
password:
Artistas más visitados
Publicidad
TOP acordes y tablaturas de Gian Marco


Ave María
de Gian Marco
Puntúa este acorde/tab:      
(0.8/5)
Reportar este acorde/tab
  Añadir a tus favoritos
  Imprimir
E7 = 022130
C/E = x20010


Intro: Am - E7 (x3)
  |-----Am-----|  |--E7--|
e|-------------------------|
B|----1------1-------3-----|
G|------2------2-------1---|
D|-2-------2-------2-------|
A|-------------------------|
E|-------------------------|


Am		     	  E7
Ave María ya no me puedo controlar... (x2)


Am      Dm	    E	Dm  Am      Dm	         E	Dm
   Te tengo y no puedo más,    la angustia me está matando
Am      Dm	E     Dm    F   E	Am
   hoy día voy a pecar,    te voy a amar
F	       E
que me perdonen los santos.


Am		     	  E7
Ave María ya no me puedo controlar... (x4)


Am      Dm	E	Dm   Am      Dm	      E
   La noche se nos cargó,       la Luna ya está menguando
Am      Dm	    E	Dm	F   E	Am
   tu ombligo me hace temblar, te voy a amar
F	      E
que me perdonen los santos.


Am		     	  E7
Ave María ya no me puedo controlar... (x4)


Dm 	     F	   Fm	 C	C/E	  Am
Se me hace tarde y el reloj dejó de funcionar
Dm	F    Fm	  C	C/E
y tu mirada me seduce mi palpitar.


Am		     	  E7
Ave María ya no me puedo controlar... (x3)


Am	      E
Uoohh ooh... Uoohh ooh... yeh
Am	      E
Uoohh ooh... yeh yeh yeh yeh...  (x2)


Trompeta!


Solo de trompeta en la guitarra: A - E (x4)
e|---------------------------------------------------8-------10-----
B|---10-10-10-10-9-10-12-12-9--------------------------10.------9..-
G|-9--------------------------9.-9.---9-8-9-10-9-8-9-------9--------
D|------------------------------------------------------------------
A|------------------------------------------------------------------
E|------------------------------------------------------------------

e|----------------8.-------7-7-7-10.-------8-8-8-12..-
B|-------10-10-10-------------------------------------
G|-9-9-9-------------9-9-9-----------9-9-9------------
D|----------------------------------------------------
A|----------------------------------------------------
E|----------------------------------------------------

e|-10-7-----10-------8---7------|
B|------9------9---9---9---10..-|
G|--------9------9--------------|
D|------------------------------|
A|------------------------------|
E|------------------------------|


Am		     E
Ave María ya no me puedo controlar...





	           --------
	        º-| ¤    ¤ |-º
	        º-|  LuïS  |-º
	        º-| ¤    ¤ |-º
	                 /
		    |    |
	·===========================·
	| luis_6cuerdas@hotmail.com |
	·===========================·


*Si hubiese algún error o alguna duda, escribe al mail o avisa por MSN*
		   
AcordesyTabs.com © 2008 Acordes y Tablaturas para guitarra. Tabs and Chords for guitar. Aviso Legal - Contacto
El uso de este sitio está sujeto a la aceptación de los términos y condiciones (32 usuarios online)