tablaturas, partituras y acordes para guitarra
Busca por banda/artista:
 
y/o título de la canción:
A B C D E F G H I J K L M N O P Q R S T U V W X Y Z 0 1 2 3 4 5 6 7 8 9 / Top 100 tabs
Categorías
Usuarios
usuario:
Darse de alta
password:
Artistas más visitados
Publicidad
TOP acordes y tablaturas de El Ultimo ke zierre


Ay de mi
de El Ultimo ke zierre
Puntúa este acorde/tab:      
(0.5/5)
Reportar este acorde/tab
  Añadir a tus favoritos
  Imprimir
Bueno, ahi les pongo una tab de una muy buena cancion de este grupo tan bueno. 

 Intro
 e|-----------------------------------------------| 
 B|-----------------------------------------------| 
 G|--4-4-4-4--------------------------------------|
 D|--4-4-4-4-5-5-5-4-4----------------------------| 4x 
 A|--2-2-2-2-5-5-5-4-4----------------------------|
 E|----------3-3-3-2-2----------------------------|
 Pre verse
 e|-----------------------------------------------| 
 B|-----------------------------------------------| 
 G|--4-4-4-4--------------------------------------| 
 D|--4-4-4-4-5x-5x-5x-4-4-------------------------| 10x
 A|--2-2-2-2-5x-5x-5x-4-4-------------------------| 
 E|----------3x-3x-3x-2-2-------------------------|
 Pre Coro
 TIEMBLAAA, SINO VIVES COMO DEBES..
 e|-----||----------------------------------------|
 B|-----||----------------------------------------|
 G|--4*-||----------------------------------------|
 D|--4*-||-5-7-4--5-7-----------------------------|
 A|--2*-||-5-7-4--5-7-----------------------------|
 E|-----||-3-5-2--3-5-----------------------------|
 Coro
 NO ES TU VIDA!!..
 e|-----------------------------------------------| 
 B|-----------------------------------------------| 
 G|--4-4-4----------------------------------------| 5x
 D|--4-4-4--4-4--5--------------------------------| 
 A|--2-2-2--4-4--5--------------------------------|
 E|---------2-2--3--------------------------------|

 Intro
 Pre verse
 Coro
 Pre Coro
 Intro

 Solo
 e|---------------------------------------------------| 
 B|---------------------------------------------------|
 G|--4-4-4-4//7-7-7-7-7(6x)-4-4//7-7//9-9//11-11(2x)--| 
 D|---------------------------------------------------| 2x 
 A|---------------------------------------------------|
 E|---------------------------------------------------|

 Acompañamiento
 e|------------------------------------------------|
 B|--------------5---------------------------------|
 G|--4-4-4-------6---------------------------------|
 D|--4-4-4--5-5--7---------------------------------| 17x
 A|--2-2-2--5-5------------------------------------|
 E|---------3-3------------------------------------|
 
 Final
 e|--------||
 B|--------||
 G|--4--4<-||
 D|--4--4<-||
 A|--2--2<-||
 E|--------||

Bueno, espero ke la puedan tocar, es facil, no creo ke tenga errores pero si algo por favor escribanme
Suerte!!
		   
AcordesyTabs.com © 2008 Acordes y Tablaturas para guitarra. Tabs and Chords for guitar. Aviso Legal - Contacto
El uso de este sitio está sujeto a la aceptación de los términos y condiciones (28 usuarios online)