tablaturas, partituras y acordes para guitarra
Busca por banda/artista:
 
y/o título de la canción:
A B C D E F G H I J K L M N O P Q R S T U V W X Y Z 0 1 2 3 4 5 6 7 8 9 / Top 100 tabs
Categorías
Usuarios
usuario:
Darse de alta
password:
Artistas más visitados
Publicidad
TOP acordes y tablaturas de Walter Giardino


Azul y negro
de Walter Giardino
Puntúa este acorde/tab:      
(0.4/5)
Reportar este acorde/tab
  Añadir a tus favoritos
  Imprimir
INTRO:

    Em        Am        C        B7
e|---------------------------------------|
b|---------------------------------------|
g|-9-7-9---9-7-9---9--7-9----9-11-8--|
D|-9-7-9---7-5-7---10-7-10---7-9--9--|
A|---------------------------------------|
E|---------------------------------------|


e|--------------------------------------------------------|
b|--------------------------------------------------------|
g|-9-7-9--------12-9--------9-7-9---9--7-9----9-11-8--|
D|-9-7-9---9-12------12-9---7-5-7---10-7-10---7-9--9--|
A|--------------------------------------------------------|
E|--------------------------------------------------------|


Em                G   
Llora mi alma por no encontrar
Am          C       B7
una salida para escapar 
Em                G   
y hoy no me queda nada mejor
Am          C       B7
que el lado oculto de lo que soy

Am             C7        Em        B7
La noche abrazara   a un pobre corazon
D                   A  Am       (intro)
que el tiempo lo tiño de azul y negro, de azul y negro

Em                G   
Vivo atrapado en un lugar
Am          C       B7
donde no importan ni el bien ni el mal
Em                G   
Entre la niebla te encontrare
Am          C       B7
busco tu alma sola y sin fe

Am             C7        Em        B7
El viento golpeara    a un pobre corazon
D                   A  Am       (intro)
que el tiempo lo tiño de azul y negro, de azul y negro

 SOLO:

 e|------------------------------------------------------------------------------|
 b|---12~-12-13-15-13b-13-12--7--5-7-8-7b-7-5-4p5h4------4-4-7-8-7-5-----10br----|
 g|-------------------------------------------------4--~~------------5-----------|
 D|------------------------------------------------------------------------------|
 A|------------------------------------------------------------------------------|
 E|------------------------------------------------------------------------------|


 e|--------------------------------12-14-14b--14br-12-----17br-------------------|
 b|---12-15-15br--------------------------------------13---------15b---------12--|
 g|--------------12-14-12-11b--11--------------------------------------12-14-----|
 D|------------------------------------------------------------------------------|
 A|------------------------------------------------------------------------------|
 E|------------------------------------------------------------------------------|


 e|------------------------------------------------------------------------------|
 b|---10b--10-8-7---------7-----10br-8-10---17-15-17-13-17-15-17-13-15-15p13p12--|
 g|----------------8--8-6---8-6--------------------------------------------------|
 D|------------------------------------------------------------------------------|
 A|------------------------------------------------------------------------------|
 E|------------------------------------------------------------------------------|


 e|-------14------12-14-15--15b--15rp14p12h14~--12-14-18b-----------------------|
 b|---15b----15b-----------------------------------------------------------------|
 g|------------------------------------------------------------------------------|
 D|------------------------------------------------------------------------------|
 A|------------------------------------------------------------------------------|
 E|------------------------------------------------------------------------------|

Em                E/G   
Ya que mis alas no se abriran
Am          C       B7
busco una daga para cortar
Em                G   
Entre los hombres me quedare
Am          C       B7
nunca a las nubes regresare

Am             C7        Em        B7
Y solo quedara  un pobre corazon
D                   A  Am        (solo 2)
que el tiempo lo tiño de azul y negro, de azul y negro


SOLO 2:  sobre  Em  Am  C  B7


FIN
		   
AcordesyTabs.com © 2008 Acordes y Tablaturas para guitarra. Tabs and Chords for guitar. Aviso Legal - Contacto
El uso de este sitio está sujeto a la aceptación de los términos y condiciones (28 usuarios online)