tablaturas, partituras y acordes para guitarra
Busca por banda/artista:
 
y/o título de la canción:
A B C D E F G H I J K L M N O P Q R S T U V W X Y Z 0 1 2 3 4 5 6 7 8 9 / Top 100 tabs
Categorías
Usuarios
usuario:
Darse de alta
password:
Artistas más visitados
Publicidad
TOP acordes y tablaturas de Pito Pérez


Estás en: Inicio > Letra P > Acordes y tablaturas de Pito Pérez > Bajo De 5 ó 6
Bajo De 5 ó 6
de Pito Pérez
Puntúa este acorde/tab:      
(0.6/5)
Reportar este acorde/tab
  Añadir a tus favoritos
  Imprimir
Intro
G-12-12--
D--------  x3
A--------
E-------3


G-----
D-----
A-----
E-3/10


G------------------------
D------------------------ X3
A-10-------------7/9-----
E---10-7-8-10--10--------

Verso
G------------------------------------
D-------------------9-10-9-7----7----
A---------7-9-10-10----------10------
E-8-8-7-8----------------------------

Coro
G-------------------------------------------------
D-------------------------------------------------
A--------2-2--2--3-3--3------------2-2---3-3------ X2 
E-3-3--3----------------1-2-3-3--3-----1-----2----
                                       *

En la segunda vez termina en el asterisco.


G-------------------------
D-------7/3-33333---------
A------------------------- x2
E-55555-------------------


G-------------------------
D-------------------------
A-4-5-7-5-4---------------
E-----------5/1-11111-----


G-------------------------
D-------7/3-33333---------
A-------------------------
E-55555-------------------

Quiero perder...
G-------------------------------
D-------------------------------
A----2-2--3-3----------2-2------
E-3-3---------1-2-3-3-3----1----
		   
AcordesyTabs.com © 2008 Acordes y Tablaturas para guitarra. Tabs and Chords for guitar. Aviso Legal - Contacto
El uso de este sitio está sujeto a la aceptación de los términos y condiciones (20 usuarios online)