tablaturas, partituras y acordes para guitarra
Busca por banda/artista:
 
y/o título de la canción:
A B C D E F G H I J K L M N O P Q R S T U V W X Y Z 0 1 2 3 4 5 6 7 8 9 / Top 100 tabs
Categorías
Usuarios
usuario:
Darse de alta
password:
Artistas más visitados
Publicidad
TOP acordes y tablaturas de Pastilla


Balance
de Pastilla
Puntúa este acorde/tab:      
(0.6/5)
Reportar este acorde/tab
  Añadir a tus favoritos
  Imprimir
x - esa cuerda no suena
* - cejilla

la1     x07750
la2     x07600
si7     x21202
mi      022100
fa#     244322
la      x02220
la m    x02210


                 ^ - se levanta la cuerda
                ^^ - se levanta y se regresa al mismo lugar

**ARREGLO 1**   »» - se desliza hacia el traste indicado 

1a-------------------------------------------------------------------- 
2a-------------------------------------------------------------------- 
3a-------------------------------------------------------------------- 
4a--------------------------------------------------------------------
5a-7-7-7-7-9-11-11-11-11-11-12-14-14-14-14-14-16-14-12-12-12-14-12-11-
6a-0-0-0-0-0--0--0--0--0--0--0--0--0--0--0--0--0--0--0--0--0--0--0--0-

**ARREGLO 2**   

1a------------------------------------------------------------- 
2a------------------------------------------------------------- 
3a------------------------------------------------------------- 
4a-------------------------------------------------------------
5a---------2-----------4-----------7---7-9-7-9-9^^-7-----------
6a-0-0-2»4---4-2-2-4»6---6-5-5-7»9---9---------------9-0-------

1a------------------------------------------------------------- 
2a------------------------------------------------------------- 
3a------------------------------------------------------------- 
4a--------------------------------------------------9----------
5a---------2-----------4-----------7---7-9-7-9-9»11---11-9-----
6a-0-0-2»4---4-2-2-4»6---6-5-5-7»9---9---------------------0---


**ARREGLO la1 la2**

3a--14»12--14--14------14»12--14--14------14»12--14--14--------

la1   la2

la1   la2
la1   la2
la1   la2    mi

**ARREGLO 1**

mi
Todos estan aqui todos alrededor
                    la       la m            mi
todos dicen comprender, los tengo en mi corazon 

ahora que estoy mejor hoy si les quisiera decir
                      la        la m       mi     si7
extraño a todos por igual pero solo estoy mejor

mi       fa#  la        
Y yo estare arriesgando todo
mi       fa#  la
y esque aqui todo esta en balance
mi       fa#  la
no quiero ser lo que siempre quise y fui
mi       fa#  la
y sin saber en nirvana me quede

(se toca igual que al principio)
Les juro me arrepenti pero todos saben porque
todos dicen conocer dicen tener la solucion
ahora que estan aqui todos alrededor
todos dicen comprender los llevo en mi corazon

la1              la2     la1          la2
No lo vayas a intentar, no lo vayas a quemar
la1       la2       la1        la2
que aqui todos los queremos
la1              la2      la1         la2
no lo vayas a intentar no te vayas a matar
la1       la2       la1        la2     
que aqui todos te queremos

mi       fa#  la        
Y yo estare arriesgando todo
mi       fa#  la
y esque aqui todo esta en balance
mi       fa#  la
no quiero ser lo que siempre quise y fui
mi       fa#  la
y sin saber en nirvana me quede

**ARREGLO 2**

mi   fa#   la
mi   fa#   la


===============================================
Transcripción de Carlos Domínguez
voxelectra@hotmail.com 
http://www.angelfire.com/ma/RockDraw/PastillaTAB.html
		   
AcordesyTabs.com © 2008 Acordes y Tablaturas para guitarra. Tabs and Chords for guitar. Aviso Legal - Contacto
El uso de este sitio está sujeto a la aceptación de los términos y condiciones (25 usuarios online)