tablaturas, partituras y acordes para guitarra
Busca por banda/artista:
 
y/o título de la canción:
A B C D E F G H I J K L M N O P Q R S T U V W X Y Z 0 1 2 3 4 5 6 7 8 9 / Top 100 tabs
Categorías
Usuarios
usuario:
Darse de alta
password:
Artistas más visitados
Publicidad
TOP acordes y tablaturas de Green day


Estás en: Inicio > Letra G > Acordes y tablaturas de Green day > Welcome to paradise solo live
Welcome to paradise solo live
de Green day
Puntúa este acorde/tab:      
(0.3/5)
Reportar este acorde/tab
  Añadir a tus favoritos
  Imprimir

"Welcome to Paradise" (Guitar Solo live)
tune down 1/2 step

this is how B.J. Armstrong plays the bridge/guitar solo live, there's lots of
feedback thru out the part.

  Em
E--0------------------------------------------------------------------------
B--0------------------------------------------------------------------------
G--0------------------------------------------------------------------------
D--2------------------------------------------------------------------------
A--2--------------------------------7~~~~~~~~~~~~~---/2~~~~~~~~~~~~~~~~~~~-
E--0------------------------------------------------------------------------
   let chord ring for a while


E------------------------------------------------------
B------------------------------------------------------
G------------------------------------------------------
D--------------------5/4/3/2/--------------/7~~~~~~---
A-h3p2p0h2h3p2~~~~~------------------------------------
E------------------------------pickscrape--------------
                                                      
   E       G       F#      F
E------4-------7-------6-------5----
B-----------------------------------
G--4-4--4--7-7--7--6-6--6--5-5--5---
D--2-2-----5-5-----4-4-----3-3------
A-----------------------------------
E-----------------------------------
  pm..    pm..    pm..    pm..


   E       G       F#      F
E--4-4-4-4-7-7-7-7-6-6-6-6-5-5-5-5--------|
B--X-X-X-X-X-X-X-X-X-X-X-X-X-X-X-X--------|
G--4-4-4-4-7-7-7-7-6-6-6-6-5-5-5-5--(4X)--|
D--2-2-2-2-5-5-5-5-4-4-4-4-3-3-3-3--------|
A-----------------------------------------|
E-----------------------------------------|












		   
AcordesyTabs.com © 2008 Acordes y Tablaturas para guitarra. Tabs and Chords for guitar. Aviso Legal - Contacto
El uso de este sitio está sujeto a la aceptación de los términos y condiciones (36 usuarios online)