tablaturas, partituras y acordes para guitarra
Busca por banda/artista:
 
y/o título de la canción:
A B C D E F G H I J K L M N O P Q R S T U V W X Y Z 0 1 2 3 4 5 6 7 8 9 / Top 100 tabs
Categorías
Usuarios
usuario:
Darse de alta
password:
Artistas más visitados
Publicidad
TOP acordes y tablaturas de Attaque 77


Estás en: Inicio > Letra A > Acordes y tablaturas de Attaque 77 > Barreda´s way
Barreda´s way
de Attaque 77
Puntúa este acorde/tab:      
(0.5/5)
Reportar este acorde/tab
  Añadir a tus favoritos
  Imprimir
Intro (2 guitarras)

Gtr.1 (distorcion)
e|--------------------------------|
B|--------------------------------|
G|--------------------------------|
D|--------------------------------|
A|--------------------------------|
E|-5-5-5-4-4-4-4-2-2-2/5-5-5-5----|
 |                                |
e|--------------------------------|
B|--------------------------------|
G|--------------------------------|
D|-7-7-7-6-6-6-6-4-4-4/7-7-7-7----|
A|--------------------------------|
E|--------------------------------|
Gtr.2 (distorcion)

A
Usted que analiza mi vida
                 Bm        D             A
y que opina lo que hubiera echo en mi lugar..
A 
Tal vez tuve otra alternativa,
               Bm         D         A  
hasta pude evitar éste final y escapar..
      Bm         D          E  
Pero decidí esperar y aguantar

Estribillo
A                                  E    D
Ya no quería seguir volviendome insa___no
A                                  E    D
Ya no quería seguir volviendome insa___no
A                     E            D
Se burlaron de mí y ahí nomás les disparé..
A                                  Bm    D        E 
si volviera a nacer lo habría intenta___do otra vez

Repite INTRO (x1)

Tuve una esposa y dos hijas
y mi suegra basureandome de aquí para allá.

siempre me decían 'conchita'
me trataban como mierda sin razón en mi lugar...
pero un día me cansé de esperar

Repite Estribillo

Outro

Gtr.1
e|----------------|
B|----------------|
G|-7-7-7----------|
D|-7-7-7-7-7-7----| (x4)
A|-5-0-5-7-7-7----|
E|-------5-5-5----|
 |                |
e|--------3h5-5-5-|
B|--------5-5-5-5-|
G|----------------|
D|----------------|
A|----------------|
E|----------------|
Gtr.2

Solo

Gtr.1
e||----------------------------|------------------------|
B||----------------------------|------------------------|
G||----------------------------|--------7-6-------------|
D||--4/9vh---9-11-7h-----7-----|------7-----9-7-7/9-9v--|
A||--------------------9---7h--|--7-9-------------------|
E||----------------------------|------------------------|

e|------------------|----------------------------|
B|------------------|----------------------------|
G|------------------|-----7-9h11h-9--------------|
D|-9-11-7h----7-7h--|-7-9-----------11-9-7-9-9h--|
A|----------9-------|----------------------------|
E|------------------|----------------------------|

e|------------------|----------------------|
B|------------------|----------------------|
G|------------------|--------7-6-----------|
D|-9-11-7h----7-7h--|----7-9-----9-7-9-9h--|
A|----------9-------|--7-------------------|
E|------------------|----------------------|

e|--------------------------------------||
B|--------------------------------------||
G|------------------13h---/16v-13-14vr--||
D|-9-11-12h---12h14---------------------||
A|--------------------------------------||
E|--------------------------------------||

Estribillo
A                                  E    D
Ya no quería seguir volviendome insa___no
A                                  E    D
Ya no quería seguir volviendome insa___no
A                     E            D
Se burlaron de mí y ahí nomás les disparé..
A                                  Bm    D        E 
si volviera a nacer lo habría intenta___do otra vez

REPITE INTRO (x2)

=====================================================

Bueno, aca les dejo la versión completa,
con el solo y la introduccion incluidas;
Creo q suena bastante bien, cualquier correcion
o duda, mandame un mail.
Saludos.
Diego
		   
AcordesyTabs.com © 2008 Acordes y Tablaturas para guitarra. Tabs and Chords for guitar. Aviso Legal - Contacto
El uso de este sitio está sujeto a la aceptación de los términos y condiciones (33 usuarios online)