tablaturas, partituras y acordes para guitarra
Busca por banda/artista:
 
y/o título de la canción:
A B C D E F G H I J K L M N O P Q R S T U V W X Y Z 0 1 2 3 4 5 6 7 8 9 / Top 100 tabs
Categorías
Usuarios
usuario:
Darse de alta
password:
Artistas más visitados
Publicidad
TOP acordes y tablaturas de Pastilla


Be A Star
de Pastilla
Puntúa este acorde/tab:      
(0.4/5)
Reportar este acorde/tab
  Añadir a tus favoritos
  Imprimir
INTRO:
Guitarra 1 toco el solo mientras guitarra 2 toca las acordes  G C A C 
e-------------------------------------------------
B------------------------------------------------ 
G--------------------0--0---2----4--2---------- 
D---0----0--2--4------------------------2------
A-------------------------------------------------
E-------------------------------------------------

e----------------------------------------------------
B-----------------------------------------------------
G--0--0--2--4--2--------0--2----5--4--4--2---0---
D--------------------2-------------------------------
A-----------------------------------------------------
E----------------------------------------------------

e---------------------------------------------
B---------------------------------------------
G------------0-3-3-1-0----0---1--0-------
D--4-3-4-3--------------2------------2---0
A--------------------------------------------
E---------------------------------------------



guitarras juntas:
G                     C           
stuck in the mud and im trying not to drown
A                  C
i'd be better if i knew where mud went
G                       C
dont want to run but it getting to hard 
A                   C 
to keep fighting on for all your dreams
G                         C 
give me some time cuz this head isnt mine
A                    C
i want something, im trying to explain
G               C 
just go away, i dont need you to stay 
A                 C
you're my mirror, please dont ever break
 

Guitarra 1 toco el solo varias veces mientras guitarra 2 toca las acordes 

G          C 
so hold on to today
A        C
we're so near the end
G       C 
they'll be no tomorrow 
A       C 
without today 

-------------------------
--------0---------1-------
----0----------0---------- 
--0---------0------------
-----------------------
-----------------------



guitarras juntas:
G                       C                      A
    they cant take it, give yourself a break tomorrow 
G                                       A 
when you're smiling and you dont know why   
C                        A
you can make cuz you'll be a star

Coro: 
G 
be a star
A
be a star
C
be a star

G 
be a star
A
be a star
C
be a star 

G 
be a star
A
be a star 
C
be a star 



Guitarra 1 toco el solo mientras guitarra 2 toca las acordes  

G C A C 
G C A C
G C A C 
G C A C 
----------------------------------------------
---------------------------------------------
-4-2--0--2--4-2-0-4-2-0---7--5-4-2------------
-----------------------------------2--4--5----7
----------------------------------------------
----------------------------------------------

e---------------------------------------------
B---------------------------------------------
G------------0-3-3-1-0----0---1--0-----------
D--4-3-4-3--------------2------------2---0---
A--------------------------------------------
E---------------------------------------------

no estoy segura de esta parte
------------------------------------------
-12-15-12--15-12-15-12-11-10-12-11-12------
--------------------------------------------
--------------------------------------------
--------------------------------------------
---------------------------------------------

-------------------------------------
-11-12-11-12-15-15-13-12-10-12-13-12-10--8---
---------------------------------------
-------------------------------------
-------------------------------------
----------------------------------------




G                      C 
try not to run cuz its really a fall
A               C 
and instead of trying make you proud 
G                     C 
maybe the end is much closer my friend 
A                  C 
get my lead out, its a bullet in your brain


Guitarra 1 toco el solo varias veces mientras guitarra 2 toca las acordes  

G          C 
so hold on to faith
A        C
we're so near the end
G       C 
they'll be no tomorrow 
A       C 
without today 

-------------------------
--------0---------1-------
----0----------0----------
--0---------0------------
-----------------------
-----------------------




parte tecla: 

e--------------------------------------------------
B--------------------------------------------------
G--------------------7-7-5--4-----2----4--5--4--2--0   
D-5--7--9-7-9-7-9-7--------------------------------
A--------------------------------------------------
E--------------------------------------------------


guitarras juntas
:
G                       C                      A
    they cant take it, give yourself a break tomorrow 
G                                       A 
when you're smiling and you dont know why   
C                        A
you can make cuz you'll be a star



G 
be a star
A 
be a star
Bb
be a star 
C 
be a star

G
be a star 
A
be a star
Bb
be a star
C
be a star

G
be a star 
A 
be a star
Bb
be a star 
C  
be a star

Arriba pastilla!!!!!!!!
		   
AcordesyTabs.com © 2008 Acordes y Tablaturas para guitarra. Tabs and Chords for guitar. Aviso Legal - Contacto
El uso de este sitio está sujeto a la aceptación de los términos y condiciones (30 usuarios online)