tablaturas, partituras y acordes para guitarra
Busca por banda/artista:
 
y/o título de la canción:
A B C D E F G H I J K L M N O P Q R S T U V W X Y Z 0 1 2 3 4 5 6 7 8 9 / Top 100 tabs
Categorías
Usuarios
usuario:
Darse de alta
password:
Artistas más visitados
Publicidad
TOP acordes y tablaturas de Hereford


Estás en: Inicio > Letra H > Acordes y tablaturas de Hereford > Bienvenida al show
Bienvenida al show
de Hereford
Puntúa este acorde/tab:      
(1.1/5)
Reportar este acorde/tab
  Añadir a tus favoritos
  Imprimir
Esta versiòn de Bienvenida al show està 
sacada del diso 'Documentado electroacùstico', 
la que aparece en el 'Documentado' tiene las 
mismas notas pero es un poco màs larga porque
tiene el punteo, asì que lo ùnico que tienes que 
hacer es acomodar estas tabs para poder tocarla
hasta el final. 


G ---------------------------------------------------------------------
D ---------------------------------------------------------------------
A ---------------------------------------------------------------------
E ---5-5-5-5-5-5-5-5-4-4-4-4-4-4-4-4-3-3-3-3-3-3-3-3-2-2-2-2-2-2-2-2---


G ---------------------------------------------------------------------
D ---------------------------------------------------------------------
A ---------------------------------------------------------------------
E ---5-5-5-5-5-5-5-5-4-4-4-4-4-4-4-4-3-3-3-3-3-3-3-3-2-2-2-2-2-2-2-2---


G ---------------------------------------------------------------------
D ---7-7-7-7-7-7-7-7-6-6-6-6-6-6-6-6-4-4-4-4-4-4-4-4-2-2-2-2-2-2-2-2---
A ---------------------------------------------------------------------
E ---------------------------------------------------------------------


G ---------------------------------------------------------------------
D ---0-0-0-0-0-0-0-0-1-1-1-1-1-1-1-1-2-2-2-2-2-2-2-2-2-2-2-2-2-2-2-2---
A ---------------------------------------------------------------------
E ---------------------------------------------------------------------


G ---------------------------------------------------------------------
D ---7-7-7-7-7-7-7-7-6-6-6-6-6-6-6-6-4-4-4-4-4-4-4-4-2-2-2-2-2-2-2-2---
A ---------------------------------------------------------------------
E ---------------------------------------------------------------------


G ---------------------------------------------------------------------
D ---0-0-0-0-0-0-0-0-1-1-1-1-1-1-1-1-2-2-2-2-2-2-2-2-2-2-2-2-2-2-2-2---
A ---------------------------------------------------------------------
E ---------------------------------------------------------------------

G ---------------------------------------------------------------------
D ---------------------------------------------------------------------
A ---------------------------------------------------------------------
E ---5-5-5-5-5-5-5-5-4-4-4-4-4-4-4-4-3-3-3-3-3-3-3-3-2-2-2-2-2-2-2-2---


G ---------------------------------------------------------------------
D ---------------------------------------------------------------------
A ---------------------------------------------------------------------
E ---5-5-5-5-5-5-5-5-4-4-4-4-4-4-4-4-3-3-3-3-3-3-3-3-2-2-2-2-2-2-2-2---


G ---------------------------------------------------------------------
D ---7-7-7-7-7-7-7-7-6-6-6-6-6-6-6-6-4-4-4-4-4-4-4-4-2-2-2-2-2-2-2-2---
A ---------------------------------------------------------------------
E ---------------------------------------------------------------------


G ---------------------------------------------------------------------
D ---0-0-0-0-0-0-0-0-1-1-1-1-1-1-1-1-2-2-2-2-2-2-2-2-2-2-2-2-2-2-2-2---
A ---------------------------------------------------------------------
E ---------------------------------------------------------------------


G ---------------------------------------------------------------------
D ---7-7-7-7-7-7-7-7-6-6-6-6-6-6-6-6-4-4-4-4-4-4-4-4-2-2-2-2-2-2-2-2---
A ---------------------------------------------------------------------
E ---------------------------------------------------------------------


G ---------------------------------------------------------------------
D ---0-0-0-0-0-0-0-0-1-1-1-1-1-1-1-1-2-2-2-2-2-2-2-2-2-2-2-2-2-2-2-2---
A ---------------------------------------------------------------------
E ---------------------------------------------------------------------

G ---------------------------------------------------------------------
D ---------------------------------------------------------------------
A ---------------------------------------------------------------------
E ---5-5-5-5-5-5-5-5-4-4-4-4-4-4-4-4-3-3-3-3-3-3-3-3-2-2-2-2-2-2-2-2---


G ---------------------------------------------------------------------
D ---------------------------------------------------------------------
A ---------------------------------------------------------------------
E ---5-5-5-5-5-5-5-5-4-4-4-4-4-4-4-4-3-3-3-3-3-3-3-3-2-2-2-2-2-2-2-2---


G ---------------------------------------------------------------------
D ---------------------------------------------------------------------
A ---------------------------------------------------------------------
E ---5-5-5-5-5-5-5-5-4-4-4-4-4-4-4-4-3-3-3-3-3-3-3-3-2-2-2-2-2-2-2-2---
		   
AcordesyTabs.com © 2008 Acordes y Tablaturas para guitarra. Tabs and Chords for guitar. Aviso Legal - Contacto
El uso de este sitio está sujeto a la aceptación de los términos y condiciones (19 usuarios online)