tablaturas, partituras y acordes para guitarra
Busca por banda/artista:
 
y/o título de la canción:
A B C D E F G H I J K L M N O P Q R S T U V W X Y Z 0 1 2 3 4 5 6 7 8 9 / Top 100 tabs
Categorías
Usuarios
usuario:
Darse de alta
password:
Artistas más visitados
Publicidad
TOP acordes y tablaturas de Los Visitantes


Estás en: Inicio > Letra L > Acordes y tablaturas de Los Visitantes > Bi Bap Um Dera
Bi Bap Um Dera
de Los Visitantes
Puntúa este acorde/tab:      
(0.6/5)
Reportar este acorde/tab
  Añadir a tus favoritos
  Imprimir
Author/Artist: Los Visitantes
Title: Bi Bap Um Dera

Cm        Am    Em
Bi bap um dera, bii, bi bap um dera, 
Cm        Am   Em
bi bap um dera mm

Cm         Am    Em
vivo en mi cueva encendí una hoguera 
     Cm    Am    Em
contamina mi corazón
Cm      Am    Em
vivo de noche vivo en el derroche 
     Cm          Am  Em
mi deseo es la oscuridad

G        C
al norte de mi espera 
G       D              G
todo sonríe a tu dulce voz
         C
sobre la cordillera 
G        D
quiero volar y llegar

pero mis mas sincera onda desespera 
comprimida en un ascensor
sobre las vías apuesto mi vida 
pago el precio: mi decepción

al norte de mi espera 
todo sonríe a tu dulce voz
sobre la cordillera 
quiero volar y llegar

con mi mambo deseando el camino santo 
se avecina la tempestad
no escarmiento, no miento y no me arrepiento 
y tu amor se me va a piantar

(a b c)
C        Bm         Am
pidiendo tu canción 
        B7          Em
me desintegro en el mar 
      C          Bm
al buscarla otra vez


SOLO: acordes Cm Am Em
 
e-|---------------12-----------------------12------15b17---(17)(17)(17)r15-
B-|----------------------------15------------------------------------------
G-|--------14b16---------14b16-------14b16---------------------------------
D-|------------------------------------------------------------------------
A-|------------------------------------------------------------------------
E-|------------------------------------------------------------------------
                                                                              

-12-----12----12----------------------------------------|-
-15b17--15b17----r15-12---------------15--12------------|-
------------------------14-12---14b16--------14--12-----|-
----------------------------------------------------14--|-
--------------------------------------------------------|-
--------------------------------------------------------|-

con mi mambo deseando el camino santo 
se avecina la tempestad
no escarmiento, no miento y no me arrepiento 
y tu amor se me va a piantar
viajando en la tormenta 
con la sonrisa de la intuición
veo en cámara lenta soy una iguana, una flor
y así vuelvo a mi cueva y prendo una hoguera 
que caliente mi corazón
vivo de noche, vivo en el derroche 
mi deseo es la oscuridad
Bi bap um dera, bii, bi bap um dera, bi bap um dera mm
pidiendo tu canción 
me desintegro en el mar 
al buscarla otra vez... 
Am       Em
fatal... fatal
		   
AcordesyTabs.com © 2008 Acordes y Tablaturas para guitarra. Tabs and Chords for guitar. Aviso Legal - Contacto
El uso de este sitio está sujeto a la aceptación de los términos y condiciones (26 usuarios online)