tablaturas, partituras y acordes para guitarra
Busca por banda/artista:
 
y/o título de la canción:
A B C D E F G H I J K L M N O P Q R S T U V W X Y Z 0 1 2 3 4 5 6 7 8 9 / Top 100 tabs
Categorías
Usuarios
usuario:
Darse de alta
password:
Artistas más visitados
Publicidad
TOP acordes y tablaturas de Barricada


Estás en: Inicio > Letra B > Acordes y tablaturas de Barricada > En Blanco y Negro
En Blanco y Negro
de Barricada
Puntúa este acorde/tab:      
(0.5/5)
Reportar este acorde/tab
  Añadir a tus favoritos
  Imprimir
+ (http://mades.kaos.es)                        +
+++++++++++++++++++++++++++++++++++++++++++++++++

	Esta es de las kanciones más kojonudas de Barricada. Supongo
        ke todos la habréis oído y no tendréis difiKultad para tokarla

Ahí va:

Riff 1:
E |--0-----0---------0-----0---------0-----0---------0-----0--------|
B |----3------3--------3------3--------3------3--------3------3-----|
G |------2------2--------2------2--------2------2--------2------2---|
D |-----------------------------------------------------------------|
A |-----------------------------------------------------------------|
E |-----------------------------------------------------------------|

Riff 2
E |---------------------------------|
B |---------5---5-----------5---5---|
G |--2------4---4-----2-----4---4---|
D |--2------2---2-----2-----2---2---|
A |--0----------------0-------------|
E |---------------------------------|

Riff 3
E |--------------------|
B |--------------------|
G |--------2--------2--|
D |--------2--------2--|
A |--------0--------0--|
E |--3*/2-----3--3-----|


Riff 1                    Riff 2
Veo todo, en blanco y negro

Riff 1                       Riff 2
el vaso acaba siendo amigo mudo

Riff 1                             Riff 2
las mismas caras los mismos gestos, amigo mudo


- Ahora viene el estribillo, kon kintas:

   G
   Quiero ser más rápido que ellos

      C
   echar todo a perder, un día tras otro, y un buen

   G
   rato después, saber llegar a casa antes

   D
   de que el sol, me diga que es de día.


Riff 3(4 veces)

D                         D
Tengo tiempo para crecer, la ciudad parece distinta

Riff 3 (2 veces)

D                              
Durante horas puedo ser capaz,

D
de emocionarme en en estas calles y andar inmortal

Riff 3 (4 veces)
Aprendiendo cada esquina

-Estribillo

Sólo: (kizá no sea del todo perfecto, pero a mí me suena bien)

E |--------------------------------------------------------------|
B |--------------------------------------------------------------|
G |--420-----420-----420-------2---420-----420-----420-----2-----|
D |-----4420----4420-----4420--2------4420----4420----4420-2-----|
A |----------------------------0---------------------------0-----|
E |--------------------------------------------------------------|

E |--------------------------------------------------------------|
B |-7--7-7-7-7---8--8-8-8-7---7--7-7-7-7---8--8--8--8--8--7------|
G |-7--7-7-7-7---9--9-9-9-7---7--7-7-7-7---9--9--9--9--9--7------|
D |--------------------------------------------------------------|
A |--------------------------------------------------------------|
E |--------------------------------------------------------------|

E |-15*-*15--15--15--1514--14-14-1415--------------------------------|
B |--------------------------------------15*--*15--15-15--13-13-13-12--|
G |--------------------------------------------------------------------|
D |--------------------------------------------------------------------|
A |--------------------------------------------------------------------|
E |--------------------------------------------------------------------|

E |-------10-----10-----10-----10-----10-------------------------------|
B |-----10-----10-----10-----10-----10----15*---------------8-8-8-8-8--|
G |--12*----12*----12*----12*----12*---------------5--------9-9-9-9-9--|
D |----------------------------------------------------7---------------|
A |--------------------------------------------------------------------|
E |--------------------------------------------------------------------|


Casi nunca sé, donde estoy, no me importan los días, ni la dirección
te preguntarás, qué coño hago aquí, dispuesto a buscar pelea si hace falta

       G                     C                    G                D
Porque sé que es un baile salvaje, combate a mala cara,veo todo en blanco y negro

G                     C                    G                D
sé que es un baile salvaje, combate a mala cara,veo todo en blanco y negro

-Ahora para terminar, viene el estribillo, 
  añadiendo otra guitarra que hace:

E |--------------------------------------------------|
B |----8---6---8---6---8-------6---5---6---5---6-----|
G |--7---7---7---7---7-------5---5---5---5---5-------|
D |--------------------------------------------------|
A |--------------------------------------------------|
E |--------------------------------------------------|

E |--------------------------------------------------|
B |----8---6---8---6---8-------8---7---8---7---8-----|
G |--7---7---7---7---7-------7---7---7---7---7-------|
D |--------------------------------------------------|
A |--------------------------------------------------|
E |--------------------------------------------------|



             Para lo ke keráis, estoy en <solera@abonados.cplus.es>

             ké disfrutéis con el drogas y kompañía.
		   
AcordesyTabs.com © 2008 Acordes y Tablaturas para guitarra. Tabs and Chords for guitar. Aviso Legal - Contacto
El uso de este sitio está sujeto a la aceptación de los términos y condiciones (28 usuarios online)