tablaturas, partituras y acordes para guitarra
Busca por banda/artista:
 
y/o título de la canción:
A B C D E F G H I J K L M N O P Q R S T U V W X Y Z 0 1 2 3 4 5 6 7 8 9 / Top 100 tabs
Categorías
Usuarios
usuario:
Darse de alta
password:
Artistas más visitados
Publicidad
TOP acordes y tablaturas de Distillers


Oh serena
de Distillers
Puntúa este acorde/tab:      
(0.6/5)
Reportar este acorde/tab
  Añadir a tus favoritos
  Imprimir

Ok ive been searching for this song for ever and finally i decide to ask my teacher
             
 Chorus               
  E-------------------------       -------------------------
  B-------------------------       -------------------------
  G--------------8-8-8-7-7-7       --5-5-5-5-5-5-8-8-8-8-8-8
  D--8-8-8-8-8-8-8-8-8-7-7-7       --5-5-5-5-5-5-8-8-8-8-8-8
  A--8-8-8-8-8-8-6-6-6-5-5-7       --3-3-3-3-3-3-6-6-6-6-6-6
  E--6-6-6-6-6-6------------       -------------------------

    ^3time

 Verse
  E-------------------------       -------------------------
  B-------------------------       -------------------------
  G--------------8-8-8-8-8-8       --------------8-8-8-8-8-8
  D--8-8-8-8-8-8-8-8-8-8-8-8       --5-5-5-5-5-5-8-8-8-8-8-8
  A--8-8-8-8-8-8-6-6-6-6-6-6       --5-5-5-5-5-5-6-6-6-6-6-6
  E--6-6-6-6-6-6------------       --3-3-3-3-3-3------------

    ^2times


Now go play ... because meah i said so meah

		   
AcordesyTabs.com © 2008 Acordes y Tablaturas para guitarra. Tabs and Chords for guitar. Aviso Legal - Contacto
El uso de este sitio está sujeto a la aceptación de los términos y condiciones (20 usuarios online)