tablaturas, partituras y acordes para guitarra
Busca por banda/artista:
 
y/o título de la canción:
A B C D E F G H I J K L M N O P Q R S T U V W X Y Z 0 1 2 3 4 5 6 7 8 9 / Top 100 tabs
Categorías
Usuarios
usuario:
Darse de alta
password:
Artistas más visitados
Publicidad
TOP acordes y tablaturas de Quetzal


Bolivia
de Quetzal
Puntúa este acorde/tab:      
(0.6/5)
Reportar este acorde/tab
  Añadir a tus favoritos
  Imprimir

                INTRO             SEGUNDA GUITARRA         Am (RAPIDO)
         E--------------------- |---------------------------0-|
         A--0-3---0-3---0-3---- |---------------------------0-|
         D------2-----2-----2-- |---------------------------2-|
         G--------------------- |---------------------------2-|
         B--------------------- |---------------------------1-|
         e--------------------- |--8-7-7-5-3-5-3-3-0--10-8--0-|



              RIFF 1 (BAJEO RAPIDO)    riff2 (CON LA SEGUNDA GUITARRA)
         E---------------------------- |-----------------|
         A--------3-2-0-2-3-------3--- |-----------------|
         D--3-2-0-----------0-2-0---0- |-----------------|
         G---------------------------- |-----------------|
         B---------------------------- |--10--9-8-7------|
         e---------------------------- |-----------------|

INTRO

                                              Am
Ser tu bravura, ser la fuerza y juventud 

C                                       D     
de tu  letardo mudo la voz  la inquietud

F*    F        Am
Bolivia  haa  ha

D                                Am
Quiero pegar un grito de liberación

F                                        Am    
despues de un siglo y medio de humillación

F*    F        Am
Bolivia  haa  ha


D                                Am
Quiero pegar un grito de liberación

F                                        Am    
despues de un siglo y medio de humillación


ACOMPAÑAMIENTO
   
C,Am   RIFF1  C,Am  F,Am  D,Am  D,Am  C,Am  RIFF1

F,Am  RIFF1  riff2  F,Am (PAUSA)


         E--5---------------5---------------------------------------------------------------|
         A--7---------------7---------------------------------------------------------------|
         D--7---------------7---------------------------------------------------------------|
         G--5---------------5-------------------8------------------------------8---------8--|
         B--5--------8-5----5------8--7-7-7-7-7---8-8-8-8-8-8-8------9-7-7-8-7---7-7-9-7--7-|
         e--5--7-8-7--------5-7-8-7---6-6-6-6-6---8-8-7-7-7-8-8-7-8-7-----------------------|


         E----------------
         A----------------
         D---------------- 
         G-2-2-----2-1-2-- 
         B-----1-0--------
         e----------------
         
          RIFF1 (RAPIDO)
         E---------------------------- 
         A--------3-2-0-2-3-------3--- 
         D--3-2-0-----------0-2-0---0- 
         G---------------------------- 
         B---------------------------- 
         e---------------------------- 


         E----------------
         A----------------
         D---------------- 
         G-2-2-----2-1-2-- 
         B-----1-0--------
         e----------------

          RIFF1 (RAPIDO)
         E---------------------------- 
         A--------3-2-0-2-3-------3--- 
         D--3-2-0-----------0-2-0---0- 
         G---------------------------- 
         B---------------------------- 
         e---------------------------- 

F,Am RIFF1 F,Am
                                      Am  
Quiero tengan tus días destino mejor

C                          Am
y el futuro sonria prometedor

F*      F  Am
Bolivia  ha ha

D                                  Am  riff2
En la falda de tus cerros haré mi hogar

A#                                Am
donde felices los niños iran a jugar

F*      F  Am
Bolivia  ha ha


D                                  Am  riff2
En la falda de tus cerros haré mi hogar

A#                                Am
donde felices los niños iran a jugar


PURO ACOMPAÑAMIENTO

C,Am RIFF1 C,Am RIFF1 C,F,Am,  D,Am  D,Am C,Am C,Am RIFF1  

A#,Am RIFF1 D,Am F,Am  D,Am C,Am RIFF1 C,Am RIFF1 C,Am RIFF1

F,Am RIFF1 F,Am   


F*      F  Am
Bolivia  ha ha.
  
            

ACORDES UN POCO RAROS PARA MI

             F*      A#
         E---1--------1-----
         A---3--------1-----                          
         D---1--------3----- 
         G---2--------3----- 
         B---1--------3-----
         e---1--------1-----



LA CANCIÓN ES BUENA PERO TAL VEZ TENGA ALGUNOS ERRORES, SI ALGUIEN TIENE ALGUNA OTRA CANCIÓN DE ESTE GRUPO POR FAVOR MANDELA
POR QUE AQUI NO HAY,  PERO ESTAN CHIDAS 




                    \_ \_ \_ \_ \_ \_ \_ \_ \_ \_ \_ \_ \_ \_

                       \_\_\_\_\_\_     \_\_\_
                        \_        \_   \_     \_
                         \_       \_   \_
                          \_\_\_\_\_    \_
                           \_            \_
                            \_            \_    
                             \_             \_     \_
                              \_      \_      \_\_\_      \_
                              
                         
                     \_ \_ \_ \_ \_ \_ \_ \_ \_ \_ \_ \_ \_ \_ \_
		   
AcordesyTabs.com © 2008 Acordes y Tablaturas para guitarra. Tabs and Chords for guitar. Aviso Legal - Contacto
El uso de este sitio está sujeto a la aceptación de los términos y condiciones (41 usuarios online)