tablaturas, partituras y acordes para guitarra
Busca por banda/artista:
 
y/o título de la canción:
A B C D E F G H I J K L M N O P Q R S T U V W X Y Z 0 1 2 3 4 5 6 7 8 9 / Top 100 tabs
Categorías
Usuarios
usuario:
Darse de alta
password:
Artistas más visitados
Publicidad
TOP acordes y tablaturas de los Tres


Estás en: Inicio > Letra l > Acordes y tablaturas de los Tres > Bolsa de mareo
Bolsa de mareo
de los Tres
Puntúa este acorde/tab:      
(0.5/5)
Reportar este acorde/tab
  Añadir a tus favoritos
  Imprimir
Esta canción consta de tres partes

(1)
Contrátame una gira por el sol,     Págame en estrellas por favor
G----------------------------------------------------------------
D----------------------------------------------------------------
A-5-5-5-5-5-5-4-4-4-4-4-4-3-3-3-3-3-5-5-5-5-5-4-4-4-4-4-3-3-3-3-3 
E----------------------------------------------------------------


Bolsa de mareo sentado en pié, que es eso que miras si no se ve

G---------------------------------------------------------------
D---------------------------------------------------------------
A------------2-2-2-2-2-2-2-2------------------------2-2-2-2-2-2-
E-0-0-0-0-0-0----------------0-0-0-0-0-0-0-0-0-0-0-0------------


Te di te doy todo no vuelvas a pedir más

G----------------------------------------------
D----------------------------------------------
A----------------------------------------------
E-5-5-5-5-5-5-3-3-3-3-3-7-7-7-7-7-7-7-8-8-8-8-8


Eso es solo falta escucharla y a tocarla
Salu2
		   
AcordesyTabs.com © 2008 Acordes y Tablaturas para guitarra. Tabs and Chords for guitar. Aviso Legal - Contacto
El uso de este sitio está sujeto a la aceptación de los términos y condiciones (34 usuarios online)