tablaturas, partituras y acordes para guitarra
Busca por banda/artista:
 
y/o título de la canción:
A B C D E F G H I J K L M N O P Q R S T U V W X Y Z 0 1 2 3 4 5 6 7 8 9 / Top 100 tabs
Categorías
Usuarios
usuario:
Darse de alta
password:
Artistas más visitados
Publicidad
TOP acordes y tablaturas de Fiel a la Vega


Estás en: Inicio > Letra F > Acordes y tablaturas de Fiel a la Vega > Boricua En La Luna
Boricua En La Luna
de Fiel a la Vega
Puntúa este acorde/tab:      
(0.3/5)
Reportar este acorde/tab
  Añadir a tus favoritos
  Imprimir
G[----------------||
D[----------------||
A[-5-----5--0--5--||               x 2
E[----3-----------||



 POR UN CIELO QUE SE HACIA ....
G[----------------------------------------------------------------------
D[---------------------------------------------------------2-2-2--------
A[-2-2-------5-5--0-0----0-0-0---2-2------2-2-------0-0-0--------0-0-0--
E[------3-3--------------------------3-3-------3-3----------------------



  DE UN PUERTO RICO DE ENSUEÑO ....
G[------------------------------------------
D[------------------------------------------
A[-------5-5--0-0--0-0-0--------------------
E[--3-3-------------------3-3--3---3-3--3---



G[----------------------||
D[----------------------||
A[-55-------5---0---5---||          x 2
E[-----33---------------||



G[---------------------------------------------------------------------
D[------------------------------------------------------2-2-2----------
A[-2-2-------5-5--0-0----0-0-0---2-2-----2-2-----0-0-0---------0-0-0---
E[------3-3--------------------------3-3-----3-3-----------------------



G[-----------------------------------------------------------------
D[-----------------------------------------------------------------
A[-------5-5----0-0---0-0-0----------------------------5-5---------
E[--3-3-----------------------3-3--3---0-0--0--5-5--5-------3-3----



G[---------------||
D[---------------||
A[-5----0-----5--||
E[---------------||
		   
AcordesyTabs.com © 2008 Acordes y Tablaturas para guitarra. Tabs and Chords for guitar. Aviso Legal - Contacto
El uso de este sitio está sujeto a la aceptación de los términos y condiciones (14 usuarios online)