tablaturas, partituras y acordes para guitarra
Busca por banda/artista:
 
y/o título de la canción:
A B C D E F G H I J K L M N O P Q R S T U V W X Y Z 0 1 2 3 4 5 6 7 8 9 / Top 100 tabs
Categorías
Usuarios
usuario:
Darse de alta
password:
Artistas más visitados
Publicidad
TOP acordes y tablaturas de Poligamia


Búscame
de Poligamia
Puntúa este acorde/tab:      
(0.3/5)
Reportar este acorde/tab
  Añadir a tus favoritos
  Imprimir
Aquí está la tablatura de una buena canción de poligamia, yo prefiero la versión en vivo.

Acordes:
Em-	022000
C-	032010
Am-	002210
G-	355433  ó  320033
D-	057775  ó  xx0232
E7-	021202

Nota: <C-D> significa tocar 2 veces C y D rápido. 

INTRO

	Em     			
e------0----|---------------0-------------|--------------0--------------
B------0----|--------3---------3---3------|-------0--------0---0---------
G------0----|-----------0--------0----0---|-----0----0-------0---0-------
D------2----|------2------2-------------2-|---2--------2-----------2-----
A------2----|----2------------------------|-3----------------------------
E------0----|--0--------------------------|------------------------------


e---------------0-------------|--0--0--0--0-----0-----0--0--0—0-----0----
B--------3---------3---3------|--0--0--1----0-----0---0--0--1---0-----0--
G-----------0--------0----0---|--0--0--0------0-----0-0--0--0-----0-----0
D------2------2-------------2-|--2--2--2--------------2--2--2------------
A----2------------------------|--2--2--3--------------2--2--3------------
E--0--------------------------|--0--0--0--------------0--0--0------------

Em			Am
Todo ha terminado has mentido otra vez
C			   Em
No vas a engañarme si te engañas tu también
Em			 Am
Por lo que demuestras el amor no es para ti
C				Em
Pues tú jamás compartes, solo quieres recibir

Em - Am	- C – D	- <C-D>
Ohhh

G			   Am
Algún día me comprenderás espero no sea tarde
      C			     D		    <C-D>
Si tú quieres encontrarme buscame en el atardecer
G				  Am
Buscame en el disco viejo que escuchábamos los dos
C				E7
En el frió del concreto de la calle del amor…

Se repite INTRO

Em			 Am
Todo ha terminado has mentido otra vez
C	                   Em
No vas a despreciarme si quieres odiarme ahora también
Em			 Am
Por lo que demuestras el amor no es para ti
C				      Em
Pues fue un gran sacrificio darme un poco de tu existir

/Estilo Funk***/
Em - Am	- C – D	- <C-D>
Ohhh

G			   Am
Algún día me comprenderás espero no sea tarde
       C		       D	    <C-D>
Si tu quieres encontrarme buscame en el atardecer
G				 Am
Buscame en el disco viejo que escuchábamos los dos
C			      E7
En el frió del concreto de la calle del amor…

Riff Solo Piano
Em – Am – C – D - <C-D>
G – Am –C –D - <C-D>

BUENO ESPERO LES HAYA PARECIDO FACIL EL TOQUE DE ESTA CANCION DE POLIGAMIA, 
BUEN ROCK COLOMBIANO, CUALQUIER VAINA ESCRIBANME, SUERTE…
UN SALUDITO A MI NOVIECITA PAOLA V.EN BOGOTA DE JULIAN MELO!!!!TQM
		   
AcordesyTabs.com © 2008 Acordes y Tablaturas para guitarra. Tabs and Chords for guitar. Aviso Legal - Contacto
El uso de este sitio está sujeto a la aceptación de los términos y condiciones (30 usuarios online)