tablaturas, partituras y acordes para guitarra
Busca por banda/artista:
 
y/o título de la canción:
A B C D E F G H I J K L M N O P Q R S T U V W X Y Z 0 1 2 3 4 5 6 7 8 9 / Top 100 tabs
Categorías
Usuarios
usuario:
Darse de alta
password:
Artistas más visitados
Publicidad
TOP acordes y tablaturas de Enanitos Verdes


Estás en: Inicio > Letra E > Acordes y tablaturas de Enanitos Verdes > Cada vez que digo adios
Cada vez que digo adios
de Enanitos Verdes
Puntúa este acorde/tab:      
(0.4/5)
Reportar este acorde/tab
  Añadir a tus favoritos
  Imprimir
INTRO:

Guitarra 1:                                                        
E||---------------------------|------------------------|
B||--------------9--------10--|----9-------7h9h7-------|
G||--------9--------9---------|-------9-----------9----|
D||--9--9-----9--------9------|------------------------|
A||---------------------------|------------------------|
E||---------------------------|------------------------|

                                                      3x
e||-------------4--------5--|-------------------------||
B||-------5--------5--------|----5-------7h9h7--------||
G||--6-------6--------6-----|-------6-----------9----*||
D||-------------------------|------------------------*||
A||-------------------------|-------------------------||
E||-------------------------|-------------------------||

Guitarra 2:
                                                          
E||---------------------------|--------------------------|
B||--------------9--------10--|--------9--------9--------|
G||--------9--------9---------|--9--------9--------9-----|
D||-----9-----9--------9------|-----9--------9--------9--|
A||--7------------------------|--------------------------|
E||---------------------------|--------------------------|

                                                      3x
e||--------------4--------5--|--------5--------5---------||
B||--------5--------5--------|--5--------5--------5------||
G||-----6-----6--------6-----|-----6--------6--------6--*||
D||--------------------------|--------------------------*||
A||--4-----------------------|---------------------------||
E||--------------------------|---------------------------||

E
Nena no te pongas mal 
C#m
sabes que esto cambiara 
A            
yo luche por tanto tiempo
F#m            B  
por lograr lo que ahora tengo
E
que es muy grande la ciudad
C#m
si no estas bien convencido
A           
que quieres llegar bien alto
F#m             B          
aunque sea duro el camino
      A                 D#
y tienes que dejar ala gente que amas
    G#m                    D         C#m7
y a ella que te mira con tristeza y alegria
     F#m
y te dice
             A      G#m
que te valla bien mi amor
      C#m7  
yo te espero
F#m             B
siempre te esperare

LOS MISMOS ACORDES:
por favor no tengas miedo 
vos me vas a sostener 
y cuando todo sea adverso
pensando en vos voy a estar muy bien
para cargar sobre mis hombros 
a este mundo que al fin
preso por la envidia y el odio
de la gente que no puede ser feliz


y tienes que dejar
a la gente que amas
y a ella que te mira
con tristeza y alegria
y te dice         
que te valla bien mi amor
yo te espero
siempre te esperare

SOLO.
E,C#m,A,F#m,B
A
tengo que pensar
        D#      G#m
en otra cosa es hora
              D  C#m7
de cambiar el rumbo
   F#m
el mundo esta girando
A          G#m
locamente y yo

ya estoy cansado 
     C#m7         
de estar tan cuerdo
F#m       B
ooh mi amor

REPITE:
y tienes que dejar
a la gente que amas
y a ella que te mira 
con tristeza y alegria
y te dice!
que te valla bien mi amor
yo te espero
siempre te esperare

E,C#m,A.(x2)
		   
AcordesyTabs.com © 2008 Acordes y Tablaturas para guitarra. Tabs and Chords for guitar. Aviso Legal - Contacto
El uso de este sitio está sujeto a la aceptación de los términos y condiciones (92 usuarios online)