tablaturas, partituras y acordes para guitarra
Busca por banda/artista:
 
y/o título de la canción:
A B C D E F G H I J K L M N O P Q R S T U V W X Y Z 0 1 2 3 4 5 6 7 8 9 / Top 100 tabs
Categorías
Usuarios
usuario:
Darse de alta
password:
Artistas más visitados
Publicidad
TOP acordes y tablaturas de Afi


Estás en: Inicio > Letra A > Acordes y tablaturas de Afi > Let It Be Broke
Let It Be Broke
de Afi
Puntúa este acorde/tab:      
(0.4/5)
Reportar este acorde/tab
  Añadir a tus favoritos
  Imprimir
LET IT BE BROKE

Tabbed by Jade
this is an official tab which is tabbed by Jade Puget of AFI


smooth sliding rhythm                                          pre-verse
|--7----9---------------------------------5-----7-----3----3-----5--5----x----2-
|--9----11--------------------------------5-----7-----3----5-----5--5----x----2-
|--9----11--------------------------------6-----8-----4----5-----6--6----x----3-
|--9----11--------------------------------7-----9-----5----5-----7--7----x----4-
|--7----9---------------------------------7-----9-----5----3-----7--7----x----4-
|--7----9---------------------------------5-----7-----3----3-----5--5----x----2-

verse:                                bridge:

  4 times
|--x--2-------3----5---|------3----2----3----2----3----2--x--2----3--3----5----7
|--x--2-------3----5---|------5----2----5----2----5----2--x--2----5--5----7----9
|--1--3-------4----6---|------5----3----5----3----5----3--1--3----5--5----7----9
|--2--4-------5----7---|------5----4----5----4----5----4--2--4----5--5----7----9
|--2--4-------5----7---|------3----4----3----4----3----4--2--4----3--3----5----7
|--x--2-------3----5---|------3----2----3----2----3----2--x--2----3--3----5----7

chorus:           (hitting the strings muted-open here gives it the bounce rhyth

|--9--9--x-----7-x----5--5-x----7--7-x----5-x----2--2----9--9---x---7-x---5--5-x
|-11-11-x------9-x----7--7-x----7--7-x----5-x----2--2---11-11---x---9-x---7--7-x
|-11-11-x------9-x----7--7-x----8--8-x----6-x----3--3---11-11---x---9-x---7--7-x
|-11-11-x------9-x----7--7-x----9--9-x----7-x----4--4---11-11---x---9-x---7--7-x
|--9--9--x-----7-x----5--5-x----9--9-x----7-x----4--4----9--9---x---7-x---5--5-x
|--9--9--x-----7-x----5--5-x----7--7-x----5-x----2--2----9--9---x---7-x---5--5-x

pre-verse 2
verse 2
chorus 2 (at the end of the second chorus, the chord progression is played throu

breakdown:  The breakdown is just a combination of previously played parts.  
It starts with the pre-verse then transitions to a strummed-out A major barre ch
(or you can play it as an octave  

D----7----
A----x----
E----5----

The rest of it is just the first half of the chorus repeated with harmonics and 
To get this sound, drag your finger down the strings picking up the 
harmonics and hitting the D,G,B, and E strings while muting with your picking ha
		   
AcordesyTabs.com © 2008 Acordes y Tablaturas para guitarra. Tabs and Chords for guitar. Aviso Legal - Contacto
El uso de este sitio está sujeto a la aceptación de los términos y condiciones (20 usuarios online)