tablaturas, partituras y acordes para guitarra
Busca por banda/artista:
 
y/o título de la canción:
A B C D E F G H I J K L M N O P Q R S T U V W X Y Z 0 1 2 3 4 5 6 7 8 9 / Top 100 tabs
Categorías
Usuarios
usuario:
Darse de alta
password:
Artistas más visitados
Publicidad
TOP acordes y tablaturas de Cacho Castaña


Estás en: Inicio > Letra C > Acordes y tablaturas de Cacho Castaña > Cafe la humedad
Cafe la humedad
de Cacho Castaña
Puntúa este acorde/tab:      
(0.5/5)
Reportar este acorde/tab
  Añadir a tus favoritos
  Imprimir
Intro:


 e. -----0--------0--------0--------0----|
 B. ---1---1----1---1-------------1---1--|
 G. -2--------0----------5---5--0--------|  (2 veces)
 D. -------------------4-----------------|
 A. -0--------0--------0--------0--------|
 E. -------------------------------------|

Humedad,   llovizna y frío...  mi aliento
 e. -----0--------0--------0--------0----|
 B. ---1---1----1---1-------------1---1--|
 G. -2--------0----------5---5--0--------|
 D. -------------------4-----------------|
 A. -0--------0--------0--------0--------|
 E. -------------------------------------|

  empaña el vidrio azul del viejo bar...
 e. -----0-----------------------------1-----|
 B. ---1---1---------1-------------------3---|
 G. -2-------------0------------5----2-----2-|
 D. --------------------------4----0---------|
 A. -0-------------0----------0--------------|
 E. -----------------------------------------|

          Dm                           C
no me pregunten si hace mucho que la espero,
                      Am                     E7 - F - E7
un café que ya está frío y hace varios ceeenizeros.


Aunque se...   que nunca llega... siempre que
  e. -----0--------0--------0--------0----|
  B. ---1---1----1---1-------------1---1--|
  G. -2--------0----------5---5--0--------|
  D. -------------------4-----------------|
  A. -0--------0--------0--------0--------|
  E. -------------------------------------|

   llueve voy corriendo hasta el café...
 e. -----0-----------------------------1-----|
 B. ---1---1---------1-------------------3---|
 G. -2-------------0------------5----2-----2-|
 D. --------------------------4----0---------|
 A. -0-------------0----------0--------------|
 E. -----------------------------------------|

         Dm                          C
y solo cuento con la compañia de un gato,
                      Am                        G
que al cordón de mi zapato, lo destroza con placer...

Estribillo:
   G                B7            E7
Café la humedad, billar y reunión,
            D7          G7
sábado con trampas que linda función.
        C        B7          E7
Yo solamente necesito agradecerte,
                     A7                         D7
la enseñanza de tus noches que me alejan de la muerte

  G                B7            E7
Café la humedad, billar y reunión,
           D7          G7
sábado con trampas que linda función.
      C            B7            E7
Eternamente te agradezco las poesías,
                      A7            D7           G
que la escuela de tus noches le enseñaron a mis días.


(Lo que queda del tema se toca igual, la letra es la siguiente)

Soledad...soledad de soltería,
son treinta abriles ya cansados de soñar;
por eso vuelvo hasta la esquina del boliche
a buscar la barra eterna de Gaona y Boyacá.
Ya son pocos los amigos que me quedan
Vamos, muchachos, esta noche a recordar
una por una las hazañas de otros tiempos
y el recuerdo del boliche que llamamos "La Humedad".

Café "La Humedad", billar y reunión,
sábado con trampas, que linda función!
Yo solamente necesito agradecerte
la enseñanza de tus noches
que me alejan de la muerte.
Café "La Humedad", billar y reunión,
sábado con trampas, que linda función!
Eternamente te agradezco las poesías
que la escuela de tus noches
le enseñaron a mis días.

ESPERO QUE LES GUSTE ESTE TEMAZO DE CACHO...

SALUDOS A TODOS!!!
		   
AcordesyTabs.com © 2008 Acordes y Tablaturas para guitarra. Tabs and Chords for guitar. Aviso Legal - Contacto
El uso de este sitio está sujeto a la aceptación de los términos y condiciones (16 usuarios online)