tablaturas, partituras y acordes para guitarra
Busca por banda/artista:
 
y/o título de la canción:
A B C D E F G H I J K L M N O P Q R S T U V W X Y Z 0 1 2 3 4 5 6 7 8 9 / Top 100 tabs
Categorías
Usuarios
usuario:
Darse de alta
password:
Artistas más visitados
Publicidad
TOP acordes y tablaturas de los Fabulosos Cadillacs


Estás en: Inicio > Letra l > Acordes y tablaturas de los Fabulosos Cadillacs > Calaveras y Diablitos
Calaveras y Diablitos
de los Fabulosos Cadillacs
Puntúa este acorde/tab:      
(0.3/5)
Reportar este acorde/tab
  Añadir a tus favoritos
  Imprimir

6 -----------------------------------------------
5 --4---5----7----4----------------------------------
4 ---2---4-7--6----2----3-5-3-2---------------------------
3 ----2-------------2------------------------------
2 -----------------------------------------------
1 -----------------------------------------------

6 -----------------------------------------------
5 --4---5----7----4----------------------------------
4 ---2---4-7--6----2----3-5-3-2---------------------------
3 ----2-------------2------------------------------
2 -----------------------------------------------
1 -----------------------------------------------

Esta es la introduccion a la gran cancion de los fabulosos
cualquier duda...insulto.....excetera....
aledicio@yahooo.com.ar
		   
AcordesyTabs.com © 2008 Acordes y Tablaturas para guitarra. Tabs and Chords for guitar. Aviso Legal - Contacto
El uso de este sitio está sujeto a la aceptación de los términos y condiciones (25 usuarios online)