tablaturas, partituras y acordes para guitarra
Busca por banda/artista:
 
y/o título de la canción:
A B C D E F G H I J K L M N O P Q R S T U V W X Y Z 0 1 2 3 4 5 6 7 8 9 / Top 100 tabs
Categorías
Usuarios
usuario:
Darse de alta
password:
Artistas más visitados
Publicidad
TOP acordes y tablaturas de Fobia


Camila
de Fobia
Puntúa este acorde/tab:      
(0.3/5)
Reportar este acorde/tab
  Añadir a tus favoritos
  Imprimir
intro:

4:-5-----2-3--------------------
3:------------4-4-5-4-2-0-2----
2:-------------------------------
1:-------------------------------


este verso puedes hacerlo como lo puse o para mas facilidad 
en la cuarta cuerda lo que pasa es que a mi se me rompio
verso:

4:--------------------------------------
3:-2-2-5-2-5-------2-2-5-2--------5--
2:------------2-3-4----------4-3-2----
1:--------------------------------------   2 times

4:-5-----2-3--------------------
3:-------------4-4-5-4-2-0-2---  y este es el final del verso


coro:
4:-5-5-7------------2-2------------
3:--------5-7---7-5-----4-2-0-2-4-
2:------------5---------------------
1:----------------------------------  2 times

4:-5-5-7-------------------------------------------------------
3:--------5-7---7-5-4-4--------------2-2--------------5-7-9--
2:------------5----------5-5-4-2-4-6-----4-4-2-0-2-4--------
1:--------------------------------------------------------------

y este peque#o (fill) lo hace cuando acaba el coro

2:--2---2---2---2/9----

y termina la rola con el coro
espero y les guste sobre todo a mi bajista el marco
		   
AcordesyTabs.com © 2008 Acordes y Tablaturas para guitarra. Tabs and Chords for guitar. Aviso Legal - Contacto
El uso de este sitio está sujeto a la aceptación de los términos y condiciones (22 usuarios online)