tablaturas, partituras y acordes para guitarra
Busca por banda/artista:
 
y/o título de la canción:
A B C D E F G H I J K L M N O P Q R S T U V W X Y Z 0 1 2 3 4 5 6 7 8 9 / Top 100 tabs
Categorías
Usuarios
usuario:
Darse de alta
password:
Artistas más visitados
Publicidad
TOP acordes y tablaturas de los Panchos


Caminemos
de los Panchos
Puntúa este acorde/tab:      
(0.3/5)
Reportar este acorde/tab
  Añadir a tus favoritos
  Imprimir
CAMINEMOS 



E ----2-2-2-2---0----------0-----------------------
B --------------------3--1-------3--1--0--3--1--0--
G -------------------------------------------------
D -------------------------------------------------
A -------------------------------------------------
E -------------------------------------------------




E ------------------------------0---2--3-----------
B ---------------------------0---------------------
G ---2--0----------------0-------------------------
D ------------1--2--4------------------------------
A -------------------------------------------------
E -------------------------------------------------




E ---------------0---------------------------------
B ------------0-----4-3-2-1-0----------------------
G ---------0----------------------2--0-------------
D -----2----------------------------------4--2--1--
A -------------------------------------------------
E -------------------------------------------------





E -------------------------------------------------
B -------------------------------------------------
G -------------------------------------------------
D -------------------------------------------------
A --3-2-0-------------------0-1-2------------------
E ------------3-2--0--2-3--------------------------



en lo que sigue se utiliza doble requinto 
o sea a dos voces por eso suena mas
completo pero estas son las notas para 
el primer requinto:


E ---2-2-2-2---0-0-0-0--------------------------
B --------------------------3-3-3-3---1-1-1-1---
G ----------------------------------------------
D ----------------------------------------------
A ----------------------------------------------
E ----------------------------------------------





E ------------------------------0--2--3------------
B --0-----------------------0----------------------
G ------2-0-------------0--------------------------
D -----------4--1-2-4------------------------------
A -------------------------------------------------
E -------------------------------------------------





E ---------------0---------------------------------
B ------------0-----4-3-2-1-0----------------------
G ---------0----------------------2--0-------------
D -----2----------------------------------4--2--1--
A -------------------------------------------------
E -------------------------------------------------

                             esto es al final en el
                              requinto de en medio
 
E ------------------------------------------------
B ----------------------------0------------------
G -------------------------------2-0--2-0----------
D -----------------------------------------4-2-1--
A ----3-2-0---------------------------------------
E --------------3-2--0-----------------------------
		   
AcordesyTabs.com © 2008 Acordes y Tablaturas para guitarra. Tabs and Chords for guitar. Aviso Legal - Contacto
El uso de este sitio está sujeto a la aceptación de los términos y condiciones (23 usuarios online)