tablaturas, partituras y acordes para guitarra
Busca por banda/artista:
 
y/o título de la canción:
A B C D E F G H I J K L M N O P Q R S T U V W X Y Z 0 1 2 3 4 5 6 7 8 9 / Top 100 tabs
Categorías
Usuarios
usuario:
Darse de alta
password:
Artistas más visitados
Publicidad
TOP acordes y tablaturas de Afi


Estás en: Inicio > Letra A > Acordes y tablaturas de Afi > Silver And Cold
Silver And Cold
de Afi
Puntúa este acorde/tab:      
(0.2/5)
Reportar este acorde/tab
  Añadir a tus favoritos
  Imprimir
Tabber: ANdrew Stewart
Artist: AFI
SOng:SIlver and cold
Tuning:standard and 1/2 step down (Eb Ab Db Gb Bb Eb)

Questions or comments email me at drtrider3456@hotmail.com


INTRO
Eb|----10-14----10-14----10-14----10-17----10-14-9-10-12-17-15-14-12-14-15
Bb|-12-------12-------12-------12-------12--------------------------------
Gb|-----------------------------------------------------------------------
Db|-----------------------------------------------------------------------
Ab|-----------------------------------------------------------------------
Eb|-----------------------------------------------------------------------

Eb|------------------------------------------------------------
Bb|------------------------------------------------------------
Gb|------------------------------------------------------------
Db|9-9-9-9-9-9-7-7-7-7-7-7-5-5-5-5-5-5-7-7-7-7-7-7-9-9-9-9-9-9-
Ab|x-x-x-x-x-x-x-x-x-x-x-x-x-x-x-x-x-x-x-x-x-x-x-x-x-x-x-x-x-x-
Eb|7-7-7-7-7-7-5-5-5-5-5-5-3-3-3-3-3-3-5-5-5-5-5-5-7-7-7-7-7-7-

------------------------------0--||
------------------------------0--||
------------------------------0--||
11111111111-12-12-12-12-12-12-2--||
x-x-x-x-x-x-x--x--x--x--x--x--2--||
9-9-9-9-9-9-10-10-10-10-10-10-0--||
                              ^let ring

VERSE (Clean)
Eb|--------------------------------------------0----------------------||
Bb|----------------------------------------------0--------------------||
Gb|-------------------------------------------------------------------||
Db|--4-0---4-0---4-0---4-0---4-0---4-0---4-0--------------------------||
Ab|2-----0-----------0-----2-----0------------------------------------||
Eb|------------3-----------------------3-----0------------------------||

Eb|------------------------------------------0------------------------||
Bb|------------------------------------------0------------------------||
Gb|------------------------------------------0------------------------||
Db|--4-0---4-0---4-0---4-0---4-0---4-0---4-0-2------------------------||
Ab|2-----0-----------0-----2-----0-----------2------------------------||
Eb|------------3-----------------------3-----0------------------------||

PRECHORUS
Eb|-------------------------------------------------------------------||
Bb|-------------------------------------------------------------------||
Gb|-------------------------------------------------------------------||
Db|-------------------------------------------------------------------||
Ab|-------------------------------------------------------------------||
Eb|7-7-7-3-3-3-5-5-5-7-7-7-5-5-5-3-3-3-0-0-0--------------------------||
   |-------------------(P)-----------------|
Eb|-------------------------------------------------------------------||
Bb|-----------------------------0-------------------------------------||
Gb|---------------------------0--0------------------------------------||
Db|-------------------------0--0---2-2-2-2-2-2-2-2-2-2-2-2------------||
Ab|------------------------2-2-----2-2-2-2-2-2-2-2-2-2-2-2------------||
Eb|7-7-7-3-3-3-5-5-5-7-7-7---------0-0-0-0-0-0-0-0-0-0-0-0------------||
                                   |--------(P)----------|<--lightly ease up on 

CHORUS
Eb|--------------------------------------------------------------
Bb|--------------------------------------------------------------
Gb|-5-5-5-5-5-5-------------7-7-7-7-7-7-9-9-9-9-9-9-9-9-9-9-9-9--
Db|-5-5-5-5-5-5-5-5-5-5-5-5-7-7-7-7-7-7-9-9-9-9-9-9-9-9-9-9-9-9--
Ab|-3-3-3-3-3-3-5-5-5-5-5-5-5-5-5-5-5-5-7-7-7-7-7-7-7-7-7-7-7-7--
Eb|-------------3-3-3-3-3-3--------------------------------------

-------------------------------------------------------------
-------------------------------------------------------------
-5-5-5-5-5-5-7-7-7-7-7-7-6-6-6-6-6-6-9-9-9-9-9-9-5-5-5-5-5-5-
-5-5-5-5-5-5-7-7-7-7-7-7-x-x-x-x-x-x-9-9-9-9-9-9-5-5-5-5-5-5-
-3-3-3-3-3-3-5-5-5-5-5-5-6-6-6-6-6-6-7-7-7-7-7-7-3-3-3-3-3-3-
-------------------------------------------------------------

---------------7---------------------------------------------------
----------------8--------------------------------------------------
-7-7-7-7-7-7-----7--------------7-7-7-7-7-7-5-5-5-5-5-5-5-5-5-5-5-5
-7-7-7-7-7-7------9-2-2-2-2-2-2-7-7-7-7-7-7-5-5-5-5-5-5-5-5-5-5-5-5
-5-5-5-5-5-5--------2-2-2-2-2-2-5-5-5-5-5-5-3-3-3-3-3-3-3-3-3-3-3-3
-------------0------0-0-0-0-0-0------------------------------------


-------------------------------------------------------------------||
-------------------------------------------------------------------||
-------------------------------------------------------------------||
-7-7-7-7-7-7-7-7-7-7-7-7-------------------------------------------||
-5-5-5-5-5-5-5-5-5-5-5-5-------------------------------------------||
-------------------------------------------------------------------||

VERSE (Clean)
Eb|--------------------------------------------0----------------------||
Bb|----------------------------------------------0--------------------||
Gb|-------------------------------------------------------------------||
Db|--4-0---4-0---4-0---4-0---4-0---4-0---4-0--------------------------||
Ab|2-----0-----------0-----2-----0------------------------------------||
Eb|------------3-----------------------3-----0------------------------||

Eb|------------------------------------------0------------------------||
Bb|------------------------------------------0------------------------||
Gb|------------------------------------------0------------------------||
Db|--4-0---4-0---4-0---4-0---4-0---4-0---4-0-2------------------------||
Ab|2-----0-----------0-----2-----0-----------2------------------------||
Eb|------------3-----------------------3-----0------------------------||

INTERLUDE
Eb|-------------------------------------------------------------------||
Bb|-------------------------------------------------------------------||
Gb|-------------------------------------------------------------------||
Db|-------------------------------------------------------------------||
Ab|5-5-5-1-1-1-3-3-3-5-5-5-3-3-3-1-1-1-2-2-2--------------------------||
Eb|7-7-7-3-3-3-5-5-5-7-7-7-5-5-5-3-3-3-0-0-0--------------------------||
   |-----------------(P)-------------------|

Eb|-------------------------------------------------------------------||
Bb|-------------------------------------------------------------------||
Gb|-------------------------------------------------------------------||
Db|-------------------2-2-2-2-2-2-2-2-2-2-2-2-------------------------||
Ab|-2-4-5---4-5---4-5-2-2-2-2-2-2-2-2-2-2-2-2-------------------------||
Eb|-------3-----0-----0-0-0-0-0-0-0-0-0-0-0-0-------------------------||

BRIDGE
Eb|------------------------------------------------------2--------0---||
Bb|-------------------------------------------------------3-2-----0---||
Gb|-4-4-------2-2--4-4--4-4--2-2-----------4-4------2-2------2-4--0---||
Db|-4-4--5-5--2-2--4-4--4-4--2-2-5-5--2-2--4-4-5-5--2-2---------5-2---||
Ab|-2-2--5-5--0-0--2-2--2-2--0-0-5-5--2-2--2-2-5-5--0-0-2--0------2---||
Eb|------3-3---------------------3-3--0-0------3-3------------3---0---||

CHORUS
Eb|--------------------------------------------------------------
Bb|--------------------------------------------------------------
Gb|-5-5-5-5-5-5-------------7-7-7-7-7-7-9-9-9-9-9-9-9-9-9-9-9-9--
Db|-5-5-5-5-5-5-5-5-5-5-5-5-7-7-7-7-7-7-9-9-9-9-9-9-9-9-9-9-9-9--
Ab|-3-3-3-3-3-3-5-5-5-5-5-5-5-5-5-5-5-5-7-7-7-7-7-7-7-7-7-7-7-7--
Eb|-------------3-3-3-3-3-3--------------------------------------

-------------------------------------------------------------
-------------------------------------------------------------
-5-5-5-5-5-5-7-7-7-7-7-7-6-6-6-6-6-6-9-9-9-9-9-9-5-5-5-5-5-5-
-5-5-5-5-5-5-7-7-7-7-7-7-x-x-x-x-x-x-9-9-9-9-9-9-5-5-5-5-5-5-
-3-3-3-3-3-3-5-5-5-5-5-5-6-6-6-6-6-6-7-7-7-7-7-7-3-3-3-3-3-3-
-------------------------------------------------------------

---------------7---------------------------------------------------
----------------8--------------------------------------------------
-7-7-7-7-7-7-----7--------------7-7-7-7-7-7-5-5-5-5-5-5-5-5-5-5-5-5
-7-7-7-7-7-7------9-2-2-2-2-2-2-7-7-7-7-7-7-5-5-5-5-5-5-5-5-5-5-5-5
-5-5-5-5-5-5--------2-2-2-2-2-2-5-5-5-5-5-5-3-3-3-3-3-3-3-3-3-3-3-3
-------------0------0-0-0-0-0-0------------------------------------


-------------------------------------------------------------------||
-------------------------------------------------------------------||
-------------------------------------------------------------------||
-7-7-7-7-7-7-7-7-7-7-7-7-------------------------------------------||
-5-5-5-5-5-5-5-5-5-5-5-5-------------------------------------------||
-------------------------------------------------------------------||

INSTRUMENTAL
Eb|-------------------------------------------------------------------||
Bb|-------------------------------------------------------------------||
Gb|-------------------------------------------------------------------||
Db|----------5-4---------4-----------5-4------------------------------||
Ab|2-2-4/5-2-----2-2-4/5---2-2-4/5-2-----2-2-4/5----------------------||
Eb|-------------------------------------------------------------------||

VERSE x2 (Clean)
Eb|--------------------------------------------0----------------------||
Bb|----------------------------------------------0--------------------||
Gb|-------------------------------------------------------------------||
Db|--4-0---4-0---4-0---4-0---4-0---4-0---4-0--------------------------||
Ab|2-----0-----------0-----2-----0------------------------------------||
Eb|------------3-----------------------3-----0------------------------||

Eb|------------------------------------------0------------------------||
Bb|--------------------------------------------0----------------------||
Gb|-------------------------------------------------------------------||
Db|--4-0---4-0---4-0---4-0---4-0---4-0---4-0--------------------------||
Ab|2-----0-----------0-----2-----0------------------------------------||
Eb|------------3-----------------------3------------------------------||

CHORUS x2
Eb|--------------------------------------------------------------
Bb|--------------------------------------------------------------
Gb|-5-5-5-5-5-5-------------7-7-7-7-7-7-9-9-9-9-9-9-9-9-9-9-9-9--
Db|-5-5-5-5-5-5-5-5-5-5-5-5-7-7-7-7-7-7-9-9-9-9-9-9-9-9-9-9-9-9--
Ab|-3-3-3-3-3-3-5-5-5-5-5-5-5-5-5-5-5-5-7-7-7-7-7-7-7-7-7-7-7-7--
Eb|-------------3-3-3-3-3-3--------------------------------------

-------------------------------------------------------------
-------------------------------------------------------------
-5-5-5-5-5-5-7-7-7-7-7-7-6-6-6-6-6-6-9-9-9-9-9-9-5-5-5-5-5-5-
-5-5-5-5-5-5-7-7-7-7-7-7-x-x-x-x-x-x-9-9-9-9-9-9-5-5-5-5-5-5-
-3-3-3-3-3-3-5-5-5-5-5-5-6-6-6-6-6-6-7-7-7-7-7-7-3-3-3-3-3-3-
-------------------------------------------------------------

---------------7---------------------------------------------------
----------------8--------------------------------------------------
-7-7-7-7-7-7-----7--------------7-7-7-7-7-7-5-5-5-5-5-5-5-5-5-5-5-5
-7-7-7-7-7-7------9-2-2-2-2-2-2-7-7-7-7-7-7-5-5-5-5-5-5-5-5-5-5-5-5
-5-5-5-5-5-5--------2-2-2-2-2-2-5-5-5-5-5-5-3-3-3-3-3-3-3-3-3-3-3-3
-------------0------0-0-0-0-0-0------------------------------------


-------------------------------------------------------------------||
-------------------------------------------------------------------||
-------------------------------------------------------------------||
-7-7-7-7-7-7-7-7-7-7-7-7-------------------------------------------||
-5-5-5-5-5-5-5-5-5-5-5-5-------------------------------------------||
-------------------------------------------------------------------||

		   
AcordesyTabs.com © 2008 Acordes y Tablaturas para guitarra. Tabs and Chords for guitar. Aviso Legal - Contacto
El uso de este sitio está sujeto a la aceptación de los términos y condiciones (29 usuarios online)