tablaturas, partituras y acordes para guitarra
Busca por banda/artista:
 
y/o título de la canción:
A B C D E F G H I J K L M N O P Q R S T U V W X Y Z 0 1 2 3 4 5 6 7 8 9 / Top 100 tabs
Categorías
Usuarios
usuario:
Darse de alta
password:
Artistas más visitados
Publicidad
TOP acordes y tablaturas de Attaque 77


Estás en: Inicio > Letra A > Acordes y tablaturas de Attaque 77 > Canción Inutil
Canción Inutil
de Attaque 77
Puntúa este acorde/tab:      
(0.6/5)
Reportar este acorde/tab
  Añadir a tus favoritos
  Imprimir
Aquí puse todo lo que es punteo en la cancion,
el intro, la parte del coro y el solo

Intro:
  A5              C5              G5
|-0-------0-------3-------3---------------------------------------|
|----1-------1-------5-------5----3-------------------------------|
|-------2-------2-------5-------5----4----------------------------|
|---------------------------------------5-------------------------|
|-----------------------------------------------------------------|
|-----------------------------------------------------------------|

  A5              C5              G5
|-0-------0-------3-------3---------------------------------------|
|----1-------1-------5-------5----3-------------------------------|
|-------2-------2-------5-------5-------------5---4---------------|
|-----------------------------------------------------------------|
|-----------------------------------------------------------------|
|-----------------------------------------------------------------|

Punteo en el coro (Para ser adolescente siempre, que es como vencer):
  A5              C5              G5
|-----------------------------------------------------------------|
|-----------------------------------------------------------------|
|-----------------------------------------------------------------|
|-----------------------------------------------------------------|
|----------------------------------------------------3--5-7--5--3-|
|-------------------------------------------------5---------------|

Solo:
  A5              C5              E5              D5
|-0-------0-------3-------3-------7-------7-----------------------|
|----1-------1-------5-------5-------8-------8----7--8--7--5------|
|-------2-------2-------5-------5-------9-------9--------------7--|
|-----------------------------------------------------------------|
|-----------------------------------------------------------------|
|-----------------------------------------------------------------|

  A5              C5              D5
|-----------------------------------------------------------------|
|-5-----------------------------------------------7--8--10--------|
|------------7--5-4--5------2-/4-/7-------------------------------|
|-----------------------5-----------------------------------------|
|-----------------------------------------------------------------|
|-----------------------------------------------------------------|
		   
AcordesyTabs.com © 2008 Acordes y Tablaturas para guitarra. Tabs and Chords for guitar. Aviso Legal - Contacto
El uso de este sitio está sujeto a la aceptación de los términos y condiciones (38 usuarios online)