tablaturas, partituras y acordes para guitarra
Busca por banda/artista:
 
y/o título de la canción:
A B C D E F G H I J K L M N O P Q R S T U V W X Y Z 0 1 2 3 4 5 6 7 8 9 / Top 100 tabs
Categorías
Usuarios
usuario:
Darse de alta
password:
Artistas más visitados
Publicidad
TOP acordes y tablaturas de Attaque 77


Estás en: Inicio > Letra A > Acordes y tablaturas de Attaque 77 > Canción Inutil
Canción Inutil
de Attaque 77
Puntúa este acorde/tab:      
(0.6/5)
Reportar este acorde/tab
  Añadir a tus favoritos
  Imprimir
INTRO:  ( sobre  Am / C / G   x2 )
e|---------------------------------------------------------
B|---------------------------------------------------------
G|-7/9-----7/9-------10/12--9----10/12--9------------------
D|----10-7----10-7-----------10----------10—10/12-9--------
A|--------------------------------------------------10-----
E|---------------------------------------------------------

e|---------------------------------------------------------|
B|---------------------------------------------------------|
G|--7/9-----7/9-------10/12--9----10/12--9-----------------|
D|-----10-7----10-7-----------10----------10—10/12---------|
A|---------------------------------------------------------|
E|---------------------------------------------------------|

Am                          C                                G
    Tantos años y el tiempo no borró el instante, esa tarde en la seccional
    Aquellos tipos parecía que jugaban con tu madre, que lloraba desconsolada:
Am                               C                                          Em               D
    “Van dos meses que no lo he vuelto a ver y esto hijos de puta dicen: ¡Algo habrá hecho!”
Am                                            C                              D
    aunque eras muy pequeño entonces, lo supiste igual.

Hijo y sangre de un desaparecido, en la calle pide a gritos: juicio y castigo.
Tinta roja, escrache en la pared, y los gases, las corridas y enfrentamientos 
Escucha, piensa, piensa, escucha y dice que “no es venganza, es instinto sin razonamiento,
La causa mueve al sentimiento y esto empieza a causar todo lo que siento

Am                                 C                                      G           
    para ser adolescente siempre, que es como vencer.   (x4)   D|-0-2-5-7/9-7-5-7-| 


SOLO:  ( sobre  Am / C / Em / D  –  Am / C / D )
e|------------------------------------------6/7---6/7---
B|---------------------------------------------8-----8--
G|--7/9-----7/9------10/12--9----10/12--9-------9-----9-
D|-----10-7----10-7----------10----------10—------------
A|------------------------------------------------------
E|------------------------------------------------------

E|------------------------------------------------------
B|-------8----------------------------------------------
G|--9/11---11-9-7—--9~-7-5-45-4---4—5/7----------------
D|------------------------------5-----------------------
A|------------------------------------------------------
E|------------------------------------------------------

Ya es bastante por hoy, va a ser mejor que me calle y aprender del silencio
Reconocer que fuimos cómplices también de ese indulto –nuestra pasiva indecisión-,
Y aunque la vida nadie nos va a devolver, prevenir es curar y luchar es remedio
Al fin y al cabo es más sincero que esta inútil canción, que es todo lo que tengo

para ser adolescente siempre, que es como vencer.”   (x4)   D|-0-2-5-7/9-7-5-7-|

Beautiful, Beautiful, Beautiful, Beautiful World.
		   
AcordesyTabs.com © 2008 Acordes y Tablaturas para guitarra. Tabs and Chords for guitar. Aviso Legal - Contacto
El uso de este sitio está sujeto a la aceptación de los términos y condiciones (76 usuarios online)