tablaturas, partituras y acordes para guitarra
Busca por banda/artista:
 
y/o título de la canción:
A B C D E F G H I J K L M N O P Q R S T U V W X Y Z 0 1 2 3 4 5 6 7 8 9 / Top 100 tabs
Categorías
Usuarios
usuario:
Darse de alta
password:
Artistas más visitados
Publicidad
TOP acordes y tablaturas de los Panchos


Estás en: Inicio > Letra l > Acordes y tablaturas de los Panchos > Capullito De Alheli
Capullito De Alheli
de los Panchos
Puntúa este acorde/tab:      
(0.5/5)
Reportar este acorde/tab
  Añadir a tus favoritos
  Imprimir

CAPULLITO DE ALELY 
REQUINTO CON CAPO EN IER TRASTE


----------5-------5--------5-------------0-4-9-7-4
--0-2-3-4---2-3-4----2-3-4---2-3-4-0-2-4----------
--------------------------------------------------
--------------------------------------------------
--------------------------------------------------
--------------------------------------------------



-------------4-7---------5-------5--------5-------
-5-4-----4-5-----0-2-3--4--2-3-4----2-3-4---2-3-4-
----4-6-------------------------------------------
--------------------------------------------------
--------------------------------------------------
--------------------------------------------------

--------0-4-9-7-4---------------4-5-7-8-9-9-4-4-7-
-0-2-4------------5-4-----4-5-7---------6-6-6-6-6-
----------------------4-6-------------------------
--------------------------------------------------
--------------------------------------------------
--------------------------------------------------

-4-7-6-5-5-------------------7-------5-----4------2
-------7-7-7-7------7-5----7-------5-----4-------2-
-----------6-6-6--6------8-----8-6----6-4-----4-2--
---------------4--4-------------------------------
---------------------------------------------------
---------------------------------------------------

---0-4--------0-----------------------------------
---0-5--------0-----------------------------------
-2-1-4--------1-----------------------------------
---2-------2--------------------------------------
---2-----2----------------------------------------
--------------------------------------------------


CUALQUIER DUDA ESCRIBAN A MI CORREO
lalosanto@hotmail.com
		   
AcordesyTabs.com © 2008 Acordes y Tablaturas para guitarra. Tabs and Chords for guitar. Aviso Legal - Contacto
El uso de este sitio está sujeto a la aceptación de los términos y condiciones (31 usuarios online)