tablaturas, partituras y acordes para guitarra
Busca por banda/artista:
 
y/o título de la canción:
A B C D E F G H I J K L M N O P Q R S T U V W X Y Z 0 1 2 3 4 5 6 7 8 9 / Top 100 tabs
Categorías
Usuarios
usuario:
Darse de alta
password:
Artistas más visitados
Publicidad
TOP acordes y tablaturas de León Gieco


Carito
de León Gieco
Puntúa este acorde/tab:      
(0.3/5)
Reportar este acorde/tab
  Añadir a tus favoritos
  Imprimir
                                             Sentado

  E
e|------0------------0------------0------------0------
B|----0---0--------0---0--------0---0--------0---0----
G|--1-------1----1-------1----1-------1----1-------1--
D|----------------------------------------------------
A|----------------------------------------------------
E|0------------0------------0------------0------------


  Solo,   En un banco en la Ciudad           Con tu mirada      Recordando el litoral

  E              ?              E                                                  F#m
e|------0--------0--------------------0-----------0-----------0--------------0-----------2------
B|----0---0------3------------------0---0-------0---0-------0---0----------0---0-------2---2----
G|--1-------1----0----------------1-------1---1-------1---1-------1------1-------1---2-------2--
D|---------------2------------------------------------------------------------------------------
A|---------------1------------------------------------------------------------------------------
E|0--------------0--------------0-----------0-----------0-------------0------------2-----------2


    Tu suerte quizo estar partida      Mitad Verdad, mitad mentira    Como espe-

  F#m           A                                E             C#7
e|--------2-------------0------------0------------------0-------------4----
B|------2---2---------2---2--------2---2--------------0---0---------6---6--
G|----2-------2-----2-------2----2-------2----------1-------1-----4-------4
D|-------------------------------------------------------------------------
A|--------------0-------------0--------------------------------4-----------
E|2----------------------------------------------0-------------------------


   ranza de los pobres prometida             Andando solo, bajo      la llovizna

    F#m          B7          E                                        ?
e|----------2----------2-----------0------------0-------------0-------0
B|-------2----2------4----4------0---0--------0---0---------0---0-----3
G|----2---------2--2--------2--1-------1----1-------1-----1-------1---0
D|--------------------------------------------------------------------2
A|---------------2----------------------------------------------------1
E|--2------------------------0------------0-------------0-------------0

  E
Gris,
                                     F#m
fingiendo duro que tu vida fue de aquí,
              A
¿Por qué cambiaste un mar de gente
           E            C#7
por donde gobierna la flor?
             F#m       B7          E    E7
Mirá que el río nunca regaló el color.


   A               G#m   C#7
Carito, Suelta tu pena,
            F#m            B7          Bm7 E7
se haga diamante tu lágrima entre mis cuerdas.
   A                G#m    C#7
Carito, suelta tu piedra,
        F#m            B7           E
Para volar como el zorzal en Primavera.


(Inter de Armónica)
F#m B7 E C#7 F#m B7 E E7 A B7 E C#7 F#m B7 E


                                           En Buenos


  E
e|------0------------0------------0------------0------
B|----0---0--------0---0--------0---0--------0---0----
G|--1-------1----1-------1----1-------1----1-------1--
D|----------------------------------------------------
A|----------------------------------------------------
E|0------------0------------0------------0------------


  Aires   Los Zapatos son    modernos         Pero no lucen como en la plaza de un pueblo

  E              ?              E                                                  F#m
e|------0--------0--------------------0-----------0-----------0--------------0-----------2------
B|----0---0------3------------------0---0-------0---0-------0---0----------0---0-------2---2----
G|--1-------1----0----------------1-------1---1-------1---1-------1------1-------1---2-------2--
D|---------------2------------------------------------------------------------------------------
A|---------------1------------------------------------------------------------------------------
E|0--------------0--------------0-----------0-----------0-------------0------------2-----------2


      Deja que tu luz chiquitita    hable en secreto a la canción Para que

  F#m           A                                E             C#7
e|--------2-------------0------------0------------------0-------------4----
B|------2---2---------2---2--------2---2--------------0---0---------6---6--
G|----2-------2-----2-------2----2-------2----------1-------1-----4-------4
D|-------------------------------------------------------------------------
A|--------------0-------------0--------------------------------4-----------
E|2----------------------------------------------0-------------------------


  Te ilumine un poco mas el sol             Cualquier semilla cuando es planta quiere

    F#m          B7          E                                            ?
e|----------2----------2-----------0------------0-------------0-----------0
B|-------2----2------4----4------0---0--------0---0---------0---0---------3
G|----2---------2--2--------2--1-------1----1-------1-----1-------1-------0
D|------------------------------------------------------------------------2
A|---------------2--------------------------------------------------------1
E|--2------------------------0------------0-------------0-----------------0

 E
Ver
                                  F#m
la misma estrella de aquel atardecer,
           A
que la salvó del pico agudo
      E            C#7
refugiándola al oscuro
          F#m                    E       E7
de la gaviota arrasadora de los zurcos.

   A                G#m  C#7  
Carito, Yo soy tu amigo,
           F#m  B7        Bm7 E7
Me ofrezco árbol para tu ni--do
   A               G#m  C#7
Carito, Suelta tu canto
           F#m             B7              E
Que el abanico en mi acordeón lo está esperando.
		   
AcordesyTabs.com © 2008 Acordes y Tablaturas para guitarra. Tabs and Chords for guitar. Aviso Legal - Contacto
El uso de este sitio está sujeto a la aceptación de los términos y condiciones (37 usuarios online)