tablaturas, partituras y acordes para guitarra
Busca por banda/artista:
 
y/o título de la canción:
A B C D E F G H I J K L M N O P Q R S T U V W X Y Z 0 1 2 3 4 5 6 7 8 9 / Top 100 tabs
Categorías
Usuarios
usuario:
Darse de alta
password:
Artistas más visitados
Publicidad
TOP acordes y tablaturas de Corcobado


Estás en: Inicio > Letra C > Acordes y tablaturas de Corcobado > Carta al cielo
Carta al cielo
de Corcobado
Puntúa este acorde/tab:      
(0.2/5)
Reportar este acorde/tab
  Añadir a tus favoritos
  Imprimir
  Introduccion
  0:14
|----------------| X 4 veces
|----------------|
|-5-5---3-5-5----| Dm
|-----5----------|
|----------------|



Verso completo se repite 2 veces
       Dm                  C                 Am
|-----------------|-----------------|---------------------|
|se repite 4 veces|se repite 2 veces| se repite 2 veces   |     |  0:33       |
|-----------------|-----------------|---------------------|-----|-------------|
|-----------------|-----------------|---------------------|-----|-------------|
|---5-5---3-5-5---|--------3-3------|---------------------|-----|-------------|
|-------5---------|----3-5----------|------0-3-5-5--------|-0-3-|---5--5--5---|
|-----------------|-----------------|---------------------|-----|-------------|




Estribillo

|----------------- |Segun el bajo esta bien asi pero hay   |
|se repite 4 veces |algo raro por q´ parece que cambia a C |
|----------------- |---------------------------------------|toquenlo como mejor lo escuchen por que
|-----1-3-----1-3- |-----5-7------5-7------5-7------5-7----|el bajo yo lo escucho asi, pero en la
|----------------- |---7--------7--------7--------7--------|guitarra no estoy completamente seguro
|-1-1-----1-1----- |-5--------5--------5--------5----------|que se quede 2 tiempos en Am
|----------------- |---------------------------------------|
        F               C/Am                 Am


|------------------|-------------------|-------------------|-------------------|
|       Dm         |        Bb         |         C         |        Am         |       |
|----------------- | ----------------- | ----------------- | ----------------- | ----- |
|----------------- | ----------------- | ----------------- | ----------------- | ----- |
|-5-5---3-5-5---3- | ----------------- | ---3-3-----3-3--- | ----------------- | ----- |
|-----5-------5--- | ---1-4-6-6-1-4--- | -------3-5------- | -0-3-5-5-0-3-5-5- | -0-3  |
|----------------- | --(6)-----(6)---- | ----------------- | ----------------- | ----- |

|-----------------|
|se repite 3 veces|
|-----------------| esto es solo un adorno
|-----------------| para llegar al precoro
|-5-5---3-5-5-----| y se junta con la preparacion
|-----5-----------| debe tocarse seguido sin pausa
|-----------------|
        Dm



|  esto es solo   |
| una preparacion | marcando X 2 tiempos  |
|-----------------|-----|-----|-----|-----|
|-----------------|-----|-----|-----|-----|
|---3-5----3-4-5--|-(5)-|-----|-(3)-|-----|
|-5------5--------|-----|-(6)-|-----|-(5)-|
|-----------------|-----|-----|-----|-----|
                    Dm     Bb    C     Am


Coro, marcando X 1 tiempo c/u
se repite X 4 veces
|-----|-----|-----| --------- |aqui tambien estan confusos los tonos
|-----|-----|-Dm--| --------- |por que el bajo se escucha en Bb
|-(1)-|-----|-(5)-| -1-0----- |y en la guitarra se toca F
|-Bb--|--C--|-----| --------- |lo mejor es que lo saquen ustedes
|-----|-(1)-|-----| --------- |y asi sepan lo que estan tocando
 esto tambien es el intermedio
 y el final




y eso es todo,
solo se repite desde el inicio

solo toquenla en el orden y en la sequencia de la cancion


Nota: esta tablatura se la dedico con mucho cariño a dos personas que quiero mucho
y que les gusta mucho esta cancion. a mi hermano Jovane Y a mi mama

nota2: esta transcripcion esta hecha para bajo de 5 cuerdas pero no hay problema
casi no se ocupa


espero que les guste


***************************************************
* Transcrita por: B-e-N-j-A-m-I-n-_-K-a-B-r-E-r-A *
***************************************************
		   
AcordesyTabs.com © 2008 Acordes y Tablaturas para guitarra. Tabs and Chords for guitar. Aviso Legal - Contacto
El uso de este sitio está sujeto a la aceptación de los términos y condiciones (33 usuarios online)