tablaturas, partituras y acordes para guitarra
Busca por banda/artista:
 
y/o título de la canción:
A B C D E F G H I J K L M N O P Q R S T U V W X Y Z 0 1 2 3 4 5 6 7 8 9 / Top 100 tabs
Categorías
Usuarios
usuario:
Darse de alta
password:
Artistas más visitados
Publicidad
TOP acordes y tablaturas de Fernando Delgadillo


Carta a Francia
de Fernando Delgadillo
Puntúa este acorde/tab:      
(0.4/5)
Reportar este acorde/tab
  Añadir a tus favoritos
  Imprimir
Intro:

  G       D9              Am                                     C
E|----------------0-|------------------|------------------|---------------0--|1
B|--------------3---|----------0-0^2-3-|--3^2--0--0-------|-------------1----|2
G|------------2-----|-------2----------|------------------|-----------0------|3
d|---------0--------|------------------|------------------|------------------|4
a|-----2^3----------|-0h2-0------------|------------------|--0^2-3-----------|5
e|-3-3--------------|------------------|------------------|------------------|6

                        Em               D9/F#                   G
E|---------------0--|----------------0-|----------0-------|---------------3--|1
B|-------------0----|--------------0---|--------3---------|-------------3----|2
G|-----------0------|------------0-----|------2-----------|-----------0------|3
d|--2^4-5-----------|--0^2-----2-------|------------------|------------------|4
a|------------------|--------2---------|------------------|------------------|5
e|------------------|------0-----------|---2--------------|--0^2-3-----------|6

          D9              Am                                     C
E|----------------0-|------------------|------------------|---------------0--|1
B|--------------3---|----------0-0^2-3-|--3^2--0--0-------|-------------1----|2
G|------------2-----|-------2----------|------------------|-----------0------|3
d|---------0--------|------------------|------------------|------------------|4
a|-----2^3----------|-0h2-0------------|------------------|--0^2-3-----------|5
e|------------------|------------------|------------------|------------------|6

                        Em               D9/F#                   G
E|---------------0--|----------------0-|----------0-------|----------3---3-x-|1
B|-------------0----|--------------0---|--------3---------|----------3---3-x-|2
G|-----------0------|------------0-----|------2-----------|----------0---0-x-|3
d|--2^4-5-----------|--0^2-----2-------|------------------|----------0---0-x-|4
a|------------------|--------2---------|------------------|----------2---2-x-|5
e|------------------|------0-----------|---2--------------|--0^2-3---3---3-x-|6

  Am                 C                  D                  G
E|-5-----5----------|-0-----0----------|--2---2-----2---x-|-3------3---3x----|1
B|-5-----5----------|-1-----1----------|--3---3-----3---x-|-3------3---3x----|2
G|-5-----5----------|-0-----0----------|--2---2-----2---x-|-0------0---0x----|3
d|-7-----7----------|-2-----2----------|--0---0-----0---x-|-0------0---0x----|4
a|-7-----7----------|-3-----3----------|--0---0-----0---x-|-2------2---2x----|5
e|-5-----5----------|-0-----0----------|--2---2-----2---x-|-3------3---3x----|6

  Am                 C                  D                  Em
E|-5-----5----------|-0-----0----------|--2---2-----2---x-|------------------|1
B|-5-----5----------|-1-----1----------|--3---3-----3---x-|------------------|2
G|-5-----5----------|-0-----0----------|--2---2-----2---x-|------------------|3
d|-7-----7----------|-2-----2----------|--0---0-----0---x-|------------------|4
a|-7-----7----------|-3-----3----------|--0---0-----0---x-|------------------|5
e|-5-----5----------|-0-----0----------|--2---2-----2---x-|--3---------------|6

Em   D9/F#     G

                        Am
Desde el sitio en donde siempre...
                     C 
estoy pensando en ti... 
                      E9  D9/F# G
con interna obstinación..... 
                    Am
Y anotando lo que siento
                  C 
que nos pasa aqui....
                     D D/F# 
aunque no sea lo mejor.... 
            Em
Como te extraño.... 
        Am                        C
y como tengo miedo de perder mis pasos
          D            D/F#
de extraviar en algún lado..... 
                  Em
mis promesas y mis sueños..... 
        Am
Cuál será el mejor camino? 
       C                            D D/F#   G
todos dicen...  este si te va a llevar...  
                     Am
Cada vez son muchos más los que se acercan...  
    C
la gente siempre aplaude..... 
        D            D/F#
y temo tanto darme cuenta..... 
         Em
que tan solo condesciendan...  
        Am
con mi modo de mirar... 
       C
sin saber a ciencia cierta.... 
       D             D/F#
si comparten lo que digo..... 
          G
si en verdad están conmigo... 
       A7                          C
si conceden la importancia y el valor... 
            D           C D/F#
que les concedo yo también!!! 

         Em           Am
Hoy necesito toda la noche... 
                          C 
para contar lo que he escrito... 
        D            D/F#
acerca de los que comercian... 
        Em                     Am
con la música sencilla y reciclada..... 
                   C
y que nunca dicen nada...  
                    D          D/F#
será que no tienen nada que decir..... 
          G
Como quisiera...  
              A7                       C
ver que el artista esta buscando la manera...  
              Em                            Am
de hablar de todo lo que se ha vuelto importante.... 
                       C
y aun así nunca es bastante.... 
Aun nos falta.... 
        D            D/F#           G Am C D Em D/F# G
y vaya si nos falta tanto a que cantar..... 
                 Am                       C
En el mundo solo miro dos extremos hoy.... 
                     E9 Em D G
y tu tan lejos de aquí... 
                     Am                C
la nostalgia se me ira con el verano.... 
                  D
cuando vayas a venir.... 
            Am
Como te extraño... 
        C                         A7/C#
y como tengo miedo de perder los pasos.... 
          D            D/F#       Em   
de extraviar en algún lado las promesas y los sueños 
        Am
Cuál será el mejor camino???? 
         C                            D
estoy seguro que dirías que tome aquel... 
                    Em             F C G G9 G
el que me lleve mas lejos...... 
                   Am                        C
No he sabido decir todo lo que pienso en ti... 
                         E9 Em F
ni he sabido hablar de amor..... 
                    C
Tengo tanto que contarte.... 
                            G
que he perdido y que no encuentro.... 
                         Am
y entre alguna de estas cosas.... 
                      C
la frescura conque ideé mis planes...... 
            G
la primera vez..... 
                Am
He perdido la sorpresa
         D                        C
con que descubrí en la luna mi cabeza.... 
        D               G
si se fue pensando en ti.... 
            Am                      C
Y hasta el gusto de ser un irresponsable.... 
                  Em
como pesan las palabras
                      F
cuando marcha uno detrás.... 
      Em                           G
y cuando soy yo quien tiene que decirlas...... 
                     Am
ojalá y que en esta noche... 
                    C
cuando menos me llegara 
                              G
tu reproche a donde estoy..... 
           Am                            C
Por si había mas que decir de lo que he dicho... 
                     G                       D
y también por si lo dicho se pudo decir mejor..... 
           Am
Pero no estas..... 
            C                        A/C#
y los que vienen no están para perdonarme... 
                    D
mis carencias personales... 
                        Em                Am
mas bien vienen al concierto de esta noche.... 
     A7         D D/C D/B D/A 
esperando lo mejor... 
      G          Am             C
Y yo tengo la cabeza en tantos lados..... 
       D          G
canto para tanta gente... 
          Am            C  D
y ahora pienso tanto en ti.... 

        G
Y aun así... 
               Am      C             D    
me alcanza el corazón para sentirlo todo.... 
              G           Am
y hoy que me haces tanta falta.... 
     C          G                         D D9 D D9
solamente, solamente me he querido repetir.... 
            Em
Como te extraño...... 
        Am                        C
y como tengo miedo de perder tus pasos..... 
          D            D/F#        Em
de extraviar en algún lado tus promesas y tus sueños.... 
        Am
Cual será el mejor camino???? 
        C
Y al hacerme esta pregunta.... 
           D
Pienso en ti....... 
           C
y en el camino.... 
          D          G     Am C 
que te traiga de regreso... 
          D          G     Am C
que te traiga de regreso... 
          D          G         G7 G9 G 
que te traiga de regreso...



ACORDES:
       ( e a d G B E )
D9/F#    2 0 0 2 3 0
G7       3 2 0 0 3 1
G9       x 2 3 2 3 3
D9       x 0 0 2 3 0
		   
AcordesyTabs.com © 2008 Acordes y Tablaturas para guitarra. Tabs and Chords for guitar. Aviso Legal - Contacto
El uso de este sitio está sujeto a la aceptación de los términos y condiciones (10 usuarios online)