tablaturas, partituras y acordes para guitarra
Busca por banda/artista:
 
y/o título de la canción:
A B C D E F G H I J K L M N O P Q R S T U V W X Y Z 0 1 2 3 4 5 6 7 8 9 / Top 100 tabs
Categorías
Usuarios
usuario:
Darse de alta
password:
Artistas más visitados
Publicidad
TOP acordes y tablaturas de Celtas Cortos


Estás en: Inicio > Letra C > Acordes y tablaturas de Celtas Cortos > Carta a Rigoberta Menchú
Carta a Rigoberta Menchú
de Celtas Cortos
Puntúa este acorde/tab:      
(0.5/5)
Reportar este acorde/tab
  Añadir a tus favoritos
  Imprimir
Esta es mi primera canción, espero no tener demasiados errores. Lo unico 
que puede que no sea el traste adecuado (pero podeis mirar vosotr@s
si es 2 trastes mas arriba o mas abajo, aunque yo creo que está bien).

La INTRO (se repite varias veces a lo largo de la cancion).Parece dififil,
pero no lo es, lo unico es que el ritmo es rapido, asi que escuchad la
cancion y seguro que le cogeis el truco:

E---------------------------------------------------5------------5-------
B----------5-----5h6h8--6-5-------------5-----5h6h8---8-8~--5h8----8-----
G------5-7---7~-------------7~------5-7---7~-------------------------5-7~
D--5h7--------------------------5h7--------------------------------------
A------------------------------------------------------------------------
e------------------------------------------------------------------------

E-------------5-7-8-------||
B-----5~-6h8--------------||
G-5h7----------------5~---||
D-------------------------||
A-------------------------||
e-------------------------||


"Punteo" echo por acordeón. Este me ha costado mas sacar, y aun así no 
está entero (a ver si entre tod@s lo sacamos).

E---------------------------------------------
B-5-------5-----------------5-6-5-------------
G---7p5h7---7-5~---5h7p5--7-------7~--5-5~----
D----------------7--------------------------5-
A---------------------------------------------
e---------------------------------------------
							
Si quereis contactar conmigo, aqui teneis mi e-mail:
            rugoli@euskalnet.net

PD. Si teneis las tablaturas o partituras de las canciones de Celtas 
Cortos "Irlandalusi" e "Ilusiones" avisadme, me interesan. Muchas gracias
		   
AcordesyTabs.com © 2008 Acordes y Tablaturas para guitarra. Tabs and Chords for guitar. Aviso Legal - Contacto
El uso de este sitio está sujeto a la aceptación de los términos y condiciones (21 usuarios online)