tablaturas, partituras y acordes para guitarra
Busca por banda/artista:
 
y/o título de la canción:
A B C D E F G H I J K L M N O P Q R S T U V W X Y Z 0 1 2 3 4 5 6 7 8 9 / Top 100 tabs
Categorías
Usuarios
usuario:
Darse de alta
password:
Artistas más visitados
Publicidad
TOP acordes y tablaturas de Extremoduro


Estás en: Inicio > Letra E > Acordes y tablaturas de Extremoduro > Amor Castúo
Amor Castúo
de Extremoduro
Puntúa este acorde/tab:      
(0.4/5)
Reportar este acorde/tab
  Añadir a tus favoritos
  Imprimir
+ Tabulados de made in spain!                   +
+ (http://mades.kaos.es)                        +
+++++++++++++++++++++++++++++++++++++++++++++++++

Intro                   1.
e |--------------------|------------------|----------------------|
B |--------------------|------------------|----------------------|
G |--------------------|------------------|----------------------|
D |---7-7-8-7----------|-----7-5----------|-----8-9------8-9-----|
A |---5-5------7-7-8-7-|-8-8------5-5-3-7-|-8-8------8-8---------|
E |------------5-5-----|-6-6------3-3-----|-6-6------6-6---------|


e |--------------------------------------------------------------|
B |--------------------------------------------------------------|
G |--7-7--------------------7-7----------------------------7-7---|
D |--7-7--------------------7-7---------7-7-------------5--7-7---|
A |--5-5--------------------5-5---------7-7-------------5--5-5---|
E |-------------------------------------5-5-------------3--------|
        Paso las horas sin comer   Pinto la vida sin papel
        Primero rompo el cor....


Riff principal:
e |------------------------------------|
B |------------------------------------|
G |---4-4-4-4-4-4-----------------2----|
D |---4-4-4-4-4-4-4-4-4-4-4-4-5-5-2----|
A |---2-2-2-2-2-2-4-4-4-4-4-4-5-5-0----|
E |---------------2-2-2-2-2-2-3-3------|
    Me levante....................


        La canci˘n es esto y algo m s. He visto algunas partituras
   por ahˇ que son los acordes en plan cutre. Creo que esto suena de PM.

|__         /--------------------------------------------------------
/|         |         Nicol s Garcˇa (agila@geocities.com)           |
     ----  |       http://www.geocities.com/NapaValley/2444         |
    /     | |--------------------------------------------------------|
    | |    | | "Desafiar la perspectiva del fracaso a la que estamos" |
    \_____/  |  condenados....."     PEDRµ (Roberto Iniesta)          |
             \________________________________________________________/
		   
AcordesyTabs.com © 2008 Acordes y Tablaturas para guitarra. Tabs and Chords for guitar. Aviso Legal - Contacto
El uso de este sitio está sujeto a la aceptación de los términos y condiciones (94 usuarios online)