tablaturas, partituras y acordes para guitarra
Busca por banda/artista:
 
y/o título de la canción:
A B C D E F G H I J K L M N O P Q R S T U V W X Y Z 0 1 2 3 4 5 6 7 8 9 / Top 100 tabs
Categorías
Usuarios
usuario:
Darse de alta
password:
Artistas más visitados
Publicidad
TOP acordes y tablaturas de Collective Soul


Estás en: Inicio > Letra C > Acordes y tablaturas de Collective Soul > She Gathers Rain
She Gathers Rain
de Collective Soul
Puntúa este acorde/tab:      
(0.2/5)
Reportar este acorde/tab
  Añadir a tus favoritos
  Imprimir
#----------------------------------PLEASE NOTE---------------------------------#
#This file is the author's own work and represents their interpretation of the #
#song. You may only use this file for private study, scholarship, or research. #
#------------------------------------------------------------------------------#
She Gathers Rain
by Collective Soul


                            ^=1/2 step  *-mute these notes                      
E---||---|-------------------------------------------------||
B---||---|-------------------------------------------------||
G---||*--|------------------------------------------------*||
D---||*--|-----------------6^-----------------------------*||
A---||---|---------------------7-----7--7--5--5--7--7--5---||
E---||---|--0--------7--0----------------------------------||
                                                                                

                                 ********************                        
E----------------------------------------------------|
B----------------------------------------------------|
G---------------------6^-----------------------------|
D-------------------------7-----7--7--5--5--7--7--5--|
A---0--------7-----0---------------------------------|
E----------------------------------------------------|
                                                                                

                             *********************                           
E-------------------------------------------------|---||
B-------------------------------------------------|---||
G-------------------------------------------------|--*||
D------------------6^-----------------------------|--*||
A----------------------7-----7--7--5--5--7--7--5--|---||
E---0--------7--0---------------------------------|---||
                                                                                

             Today she dresses                                                  
E---0--0--0--r--r--r--r--r--r--r--r--0--0--0-----------
B---0--0--0--e--e--e--e--e--e--e--e--0--0--0-----------
G---1--1--1--s--s--s--s--s--s--s--s--1--1--1-----------
D---2--2--2--t--t--t--t--t--t--t--t--2--2--2-----------
A---2--2--2--------------------------2--2--2-----------
E---0--0--0--------------------------0--0--0-----------
                                                                            
          For the change she faces now                                          
E---r--r--r--r--r--r--r--r--r--r--r--0--0--0--0--0--0--0--0--0--0--0--0--r------
B---e--e--e--e--e--e--e--e--e--e--e--3--3--3--3--2--2--2--2--2--2--2--2--e------
G---s--s--s--s--s--s--s--s--s--s--s--2--2--2--2--2--2--2--2--2--2--2--2--s------
D---t--t--t--t--t--t--t--t--t--t--t--2--2--2--2--2--2--2--2--2--2--2--2--t------
A------------------------------------0--0--0--0--0--0--0--0--0--0--0--0---------
E-------------------------------------------------------------------------------
                                                                                

                                                                                
E---r--0--0--0--0--0--0--0--0--0--0--0--0--|
B---e--3--3--3--3--3--3--3--2--2--2--2--2--|
G---s--2--2--2--2--2--2--2--2--2--2--2--2--|
D---t--2--2--2--2--2--2--2--2--2--2--2--2--|
A------0--0--0--0--0--0--0--0--0--0--0--0--|
E------------------------------------------|
                                                                            
  (G#)She doesn't care (Av)     what the prophets say (E)                       
E-----------------------------------------------------------------------0-------
B-----------------------------------------------------------------0-------------
G---1-----------------2/4/6/82--------------------------------------1-----1----
D--------------------------------------------------------------2----------------
A-------------------------------------------------------------------------------
E-------------------------------------------------------------------------------
                                                                                

                (Bvii)anymore                                                   
E---------------------------7-----------|
B---0-----------------7-----------7-----|
G------1-----------------8-----8-----8--|
D------------------9--------------------|
A---------------------------------------|
E---------------7-----------------------|
                                                                                

    (G#)For the love she had (Av) she has no more                               
E-----------------------------------------------------|
B-----------------------------------------------------|
G---1-----------------------2/4/6/82-----------------|
D-----------------------------------------------------|
A-----------------------------------------------------|
E-----------------------------------------------------|
                                                                            

(E)             (A)                       (F#m)
 
So she gathers rain.   Yeah, she gathers rain.

                (A)                      (E)

To wash and cleanse and make her whole again.


Solo:
                                                                         
E-------------------------------------------------------------------------------
B-------------------------------------------------------------------------------
G----------13h14--13~~~---------13h14--13~~~---------13h14--13--14--------------
D---12/14----------------12/14----------------12/14-----------------14----------
A-------------------------------------------------------------------------------
E-------------------------------------------------------------------------------
                                                                                

                                                                                
E-----------------------------------------13-------------15-------------16------
B-------------------------------------------------------------------------------
G---13--14--16-----13--14--16-----13--14---------13--14---------13--14----------
D-------------------------------------------------------------------------------
A-------------------------------------------------------------------------------
E-------------------------------------------------------------------------------
                                                                                


                                                                            
                                                                                
E----------17--16~~~---------17--16~~~--------17--18^--17--16^--16--------1612
B---14h16-------------14h16-------------14h16-----------------------------------
G-------------------------------------------------------------------------------
D-------------------------------------------------------------------------------
A-------------------------------------------------------------------------------
E-------------------------------------------------------------------------------
                                                                                

                                                                                
E------------7--9--12--7-----7--9--12-------------------------------------------
B--------------------------------------10--10--9--9--10--10--9--9---------------
G-------------------------------------------------------------------------------
D-------------------------------------------------------------------------------
A-------------------------------------------------------------------------------
E-------------------------------------------------------------------------------

Chords used in this song:                                                       

 A   E   Av   G#   Bvii  F#m  Asus4  
 |   |   |     |     |    |     |
 0   0   5     4     7    2     0
 2   0   5     4     7    2     3 
 2   1   6     5     8    2     2
 2   2   7     6     9    4     2
 0   2   7     6     9    4     0
 0   0   5     4     7    2     0

tabbed by Robert Luna (rluna@eden.com)
		   
AcordesyTabs.com © 2008 Acordes y Tablaturas para guitarra. Tabs and Chords for guitar. Aviso Legal - Contacto
El uso de este sitio está sujeto a la aceptación de los términos y condiciones (95 usuarios online)