tablaturas, partituras y acordes para guitarra
Busca por banda/artista:
 
y/o título de la canción:
A B C D E F G H I J K L M N O P Q R S T U V W X Y Z 0 1 2 3 4 5 6 7 8 9 / Top 100 tabs
Categorías
Usuarios
usuario:
Darse de alta
password:
Artistas más visitados
Publicidad
TOP acordes y tablaturas de Enanitos Verdes


Celdas
de Enanitos Verdes
Puntúa este acorde/tab:      
(0.4/5)
Reportar este acorde/tab
  Añadir a tus favoritos
  Imprimir
RIFF A:
E|--------------|---------------|--------------|--------------|
B|--------------|---------------|--------------|--------------|
G|--------------|---------------|--------------|------------5-|
D|--------5b6-5-|--5p3----5p3---|--------5b6-5-|--5p3--5/7----|
A|--5-5---------|------5------5-|--5-5---------|--------------|
E|--------------|---------------|--------------|--------------|

RIFF B:
E|--------------|---------------|-------------------------------|
B|--------------|---------------|-------------------------------|
G|--------------|---------------|-------------5-------7-------5-|
D|--------5b6-5-|--5p3----5p3---|--------5/7-----7/9-----5/7----|
A|--5-5---------|------5------5-|--5-5--------------------------|
E|--------------|---------------|-------------------------------|

RIFF C:
E|---------8v- LA ULTIMA NOTA VA CON VIBRATO
B|--5b6-6----
G|-----------

RIFF D:
D|----------------------
A|--1--3--5--7--8--7----
E|----------------------


INTRO:
(RIFF A,RIFF B)x2

VERSO 1:
REm      FA
Sabes bien
        Do         SOL   
cuando tenga que partir
REm        Fa      Do
no vuelvas a preguntar.  RIFF C
Rem          FA        
Buscaré un sitio,       
    Do           SOL   
algo acorde para mi.
SIb    FA       DO
Seguro debe existir,
debe existir.

VERSO 2:(igual que verso 1)
Medianoche,
la ciudad conserva el gris.
Festejos sobre el altar.
Y sin embargo,
lo que quiero para mi
no lo encuentro aquí,
no lo encuentro aquí...

CORO:
REm   FA     DO     SOL
Celda, celdas de animal
REm        FA    DO
Dios, quién me escuchará?
REm   FA     DO     SOL
Celda, celdas de animal  RIFF D

RIFF A,RIFF B

VERSO:
Sabes bien,
cuando tenga que partir
no creas que algo anda mal.
Es triste a veces
no tener a dónde ir.
No es bueno verme así
verme así

COROx2                                x4
LA SEGINDA VEZ CAMBIA RIFF D POR: E|------|
                                  B|--3-0-|
                                  G|------|
                                  D|------|  RIFF E
                                  A|--5/2-|
                                  E|------|
SOLO

CORO(CON RIFF E)

CON BASE DEL CORO:
CELDA...
CELDA...
CELDA...

RIFF D X2  REm

ESTA PERFECTAMENTE SACADO LASTIMA QUE NO PUDE SACAR EL SOLO. 
ESPERO QUE DISFRUTEN DE ESTE TEMASO...

LE AGRADESCO A MI EX PROFESOR DE GUITARRA ANGEL QUE SIN EL NO 
HUBIERA LLEGADO LEJOS CON LA GUITARRA
		   
AcordesyTabs.com © 2008 Acordes y Tablaturas para guitarra. Tabs and Chords for guitar. Aviso Legal - Contacto
El uso de este sitio está sujeto a la aceptación de los términos y condiciones (15 usuarios online)