tablaturas, partituras y acordes para guitarra
Busca por banda/artista:
 
y/o título de la canción:
A B C D E F G H I J K L M N O P Q R S T U V W X Y Z 0 1 2 3 4 5 6 7 8 9 / Top 100 tabs
Categorías
Usuarios
usuario:
Darse de alta
password:
Artistas más visitados
Publicidad
TOP acordes y tablaturas de los Panchos


Cerezo rosa
de los Panchos
Puntúa este acorde/tab:      
(0.3/5)
Reportar este acorde/tab
  Añadir a tus favoritos
  Imprimir
Muy buena canción, espero que les agrade!

Requinto

E---2-5-3-2-3-2-0-3-5-7-9-7-5-3-2-5-----------
B--3------------------------------------------
G-2-------------------------------------------
D---------------------------------------------
A---------------------------------------------
E---------------------------------------------

E---2-5-3-2-3-2-0-7-5-3-2---------------------
B--3----------------------3-------------------
G-2-------------------------------------------
D---------------------------------------------
A---------------------------------------------
E---------------------------------------------

       Dodis         Mim     
En el jardín de los cerezos

La7                    Re
cortaste niña aquella flor
      Dodis.          Mim  La7     Re
La perfumaste con tus besos y tu candor
         Dodis.       Mim
Pero te fuiste de mi vera
La7            Re  
y ya no se si volverás
         Dodis     Mim    La7            Re    
Flor de cerezo en primavera, ¿en dónde estás?


(CORO)
Dod.    Mim      La7         Re
Aquella tardé probé de las cerezas la miel
        Mim          La7          Re
en la quietud del jardín de los cerezos en flor
     Mim         La7        Re
Tú prometiste volver a mi florido vergel
       Mim      La7            Re
Cerezo rosa sin tí, No quiero amor.

Dod             Mim     La7
Así esperando tu regreso 
                         Re
hice un altar de nuestro amor
Dod                  Mim  La7           Re
En el jardín de los cerezoz, en plena flor.

Rem Solm La      
No, no, no podré olvidarte

Ni dejar de amarte siempre, niña

Rem Solm La
No, no, ve que tu partida

es herida que jamás podré curar

(Requinto y se repite canción)

Acordes especiales:

Dodis:

E-2-----------
B-3-----------
G-2-----------           X (No tocar)
D-1-----------
A-X-----------
E-X-----------


Bien, eso es todo!! Es una canción muy sencilla,
en realidad la interpretan varios artistas, pero
mi favorita, defintivamente es con Los Panchos.
Si encuentran algún error favor de avisarme!
Gracias!
		   
AcordesyTabs.com © 2008 Acordes y Tablaturas para guitarra. Tabs and Chords for guitar. Aviso Legal - Contacto
El uso de este sitio está sujeto a la aceptación de los términos y condiciones (22 usuarios online)