tablaturas, partituras y acordes para guitarra
Busca por banda/artista:
 
y/o título de la canción:
A B C D E F G H I J K L M N O P Q R S T U V W X Y Z 0 1 2 3 4 5 6 7 8 9 / Top 100 tabs
Categorías
Usuarios
usuario:
Darse de alta
password:
Artistas más visitados
Publicidad
TOP acordes y tablaturas de Green day


Estás en: Inicio > Letra G > Acordes y tablaturas de Green day > All by myself
All by myself
de Green day
Puntúa este acorde/tab:      
(0.2/5)
Reportar este acorde/tab
  Añadir a tus favoritos
  Imprimir


Author/Artist: Green Day
Title: All By Myself
Album: Dookie
Transcribed by: Wendy Jones
Email: wendyjones@lineone.net

This is the little secret song @ the end of the album.

Order:
Riff 1 x3
Riff 2
Riff 3
Riff 1 x2
Riff 3 x2

-2---2---2---2---3---3---3---3---2---2---2---2---3---3---3---3----------------
---3---3---3---3---3---3---3---3---3---3---3---3---3---3---3---3--------------
----------------------------------------------------------------------------
------------------------------------------------------------------------------
------------------------------------------------------------------------------
------------------------------------------------------------------------------
 ^RIFF 1^                                                                     

-2---2---2---2---3---3---3---3---4---4---4---4---5---5---5---5----------------
---3---3---3---3---3---3---3---3---5---5---5---5---5---5---5---5--------------
------------------------------------------------------------------------------
------------------------------------------------------------------------------
------------------------------------------------------------------------------
------------------------------------------------------------------------------
   ^RIFF 2^                                                                   

-4---4---4---4---5---5---5---5---4---4---4---4---5---5---5---5---4---4---4-----
---5---5---5---5---5---5---5---5---5---5---5---5---5---5---5---5--5---5---5---
------------------------------------------------------------------------------
------------------------------------------------------------------------------
------------------------------------------------------------------------------
------------------------------------------------------------------------------
                                                                              

-4----5---5---5---5-----------------------------------------------------------
---5----5---5---5---5---------------------------------------------------------
------------------------------------------------------------------------------
------------------------------------------------------------------------------
------------------------------------------------------------------------------
------------------------------------------------------------------------------
  ^RIFF 3(both lines)^                                                        


		   
AcordesyTabs.com © 2008 Acordes y Tablaturas para guitarra. Tabs and Chords for guitar. Aviso Legal - Contacto
El uso de este sitio está sujeto a la aceptación de los términos y condiciones (19 usuarios online)