tablaturas, partituras y acordes para guitarra
Busca por banda/artista:
 
y/o título de la canción:
A B C D E F G H I J K L M N O P Q R S T U V W X Y Z 0 1 2 3 4 5 6 7 8 9 / Top 100 tabs
Categorías
Usuarios
usuario:
Darse de alta
password:
Artistas más visitados
Publicidad
TOP acordes y tablaturas de Counting Crows


Estás en: Inicio > Letra C > Acordes y tablaturas de Counting Crows > American Girls
American Girls
de Counting Crows
Puntúa este acorde/tab:      
(0.8/5)
Reportar este acorde/tab
  Añadir a tus favoritos
  Imprimir
Counting Crows - American Girls

[Album : Hard Candy (2002)]

Ben_thedude@hotmail.com

Bass guitar just plays the same notes

[Verse]

 F Bb

[pre-chorus] 

 C Bb C Bb C G Bb

[chorus] 

 Dm Bb F C


 Tab:

[Intro] 

e--------------------------------------
B--------------------------------------
G--2-0-2--0-2--2--0-2-0-2-0------------
D--------------------------------------
A--------------------------------------
E--------------------------------------

e--------------------------------------
B--------------------------------------
G--2-0-2--0-2--2--0-2~3~2-0------------
D---------------------------3----------
A--------------------------------------
E--------------------------------------

[Verse 2 (she comes out of CLOSETS...)]

e--3--3-1--1-0--0-0~1-0----------------
B--------------------------------------
G--------------------------------------
D--------------------------------------
A--------------------------------------
E--------------------------------------
		   
AcordesyTabs.com © 2008 Acordes y Tablaturas para guitarra. Tabs and Chords for guitar. Aviso Legal - Contacto
El uso de este sitio está sujeto a la aceptación de los términos y condiciones (24 usuarios online)