tablaturas, partituras y acordes para guitarra
Busca por banda/artista:
 
y/o título de la canción:
A B C D E F G H I J K L M N O P Q R S T U V W X Y Z 0 1 2 3 4 5 6 7 8 9 / Top 100 tabs
Categorías
Usuarios
usuario:
Darse de alta
password:
Artistas más visitados
Publicidad
TOP acordes y tablaturas de A Piko y Pala


Chicas Güays
de A Piko y Pala
Puntúa este acorde/tab:      
(0.9/5)
Reportar este acorde/tab
  Añadir a tus favoritos
  Imprimir
@Tab by Page Piru

GRUPO:A PIKO Y PALA
ALBUM:ROCK OBRERO
CANCION:CHICAS GUAYS


Intro:
A5 F#5 B5 E
A  1-10 1-12 A

Estrofas:
A
Hay que guays que somos
F#
Que bien sabemos quedar
B
Siempre vamos a la moda 
E
Somos de capital
A
Nos da asko toda la gente
1-10
que no saben hablar
1-12
Los pintas los melenudos
A
los que van sin afeitar

Estrofas:

A G# F#                 1-10
       Soy la envidia de todas mis amigas
       Soy la preferida de papa
       Y el caso es que paso por la calle

1-12                E|--10-9-7-5---|
   Y todos me miran mal



Solillo:

e |-----------------------------------|
B |-------88-101010-8--------8-8-8----|
G |7777-9------------9-77-7-9-9-9-7-55| 
D |-----------------------------------|    
A |-----------------------------------|
E |-----------------------------------|

e |----------------|
B |----------------|
G |-----8----8--8--| 
D |7777---10--9----|    
A |----------------|
E |----------------|

Final:

E|--12-12-14-12-10-9-7-5-0-5-------|
		   
AcordesyTabs.com © 2008 Acordes y Tablaturas para guitarra. Tabs and Chords for guitar. Aviso Legal - Contacto
El uso de este sitio está sujeto a la aceptación de los términos y condiciones (26 usuarios online)