tablaturas, partituras y acordes para guitarra
Busca por banda/artista:
 
y/o título de la canción:
A B C D E F G H I J K L M N O P Q R S T U V W X Y Z 0 1 2 3 4 5 6 7 8 9 / Top 100 tabs
Categorías
Usuarios
usuario:
Darse de alta
password:
Artistas más visitados
Publicidad
TOP acordes y tablaturas de Attaque 77


Estás en: Inicio > Letra A > Acordes y tablaturas de Attaque 77 > Chicos y Perros
Chicos y Perros
de Attaque 77
Puntúa este acorde/tab:      
(0.5/5)
Reportar este acorde/tab
  Añadir a tus favoritos
  Imprimir
hola esta es el solo de chicos y perros q (creo)hace mariano en trapos
espero que les guste

1-------------------------------------------------
2-------11-12-11-12--12-11----------------11-12-11
3-9-9-9------------9--------9b-11--9-9-9----------
4-------------------------------9-----------------
5-------------------------------------------------
6-------------------------------------------------

1-------------------------------------------------
2----------------------------8p0------6p0--------5
3--11-10b/5-5/6b---12h13~-/7-----7~/5-----5~-----4
4------------------------------------------------2
5-------------------------------------------------
6-------------------------------------------------

hasta logo esto e todo lea.
		   
AcordesyTabs.com © 2008 Acordes y Tablaturas para guitarra. Tabs and Chords for guitar. Aviso Legal - Contacto
El uso de este sitio está sujeto a la aceptación de los términos y condiciones (24 usuarios online)